Oops, an error
Loading. Please wait.

Tsunami tab

version 1
version 1

Whole song

2,708 views 18 this week
no commentswrite comment
1 2 3 4 5
x 3
add to favorites
×
Save as Personal and add changes to this tab that will be seen only by you. Learn more ›
×
You can save this tab as Personal to edit and correct it or add notes. All changes will be seen only by you. Learn more »
launch autoscroll
font size
0
reset
how to read this tab
guitar tuner
edit
Autoscroll
slow
fast
+/-
esc
set tempo
stop
Author
Difficulty
-------------------------------------------------------------------------------
                            Tsunami-DVBBS BORGEOUS
-------------------------------------------------------------------------------
Tabbed by:Renn Brasfield
E-mail:rennbrasfield@yahoo.com

Tuning:Standard

Alright guys, here are the tabs i've figured out for this amazingly intense song. I'm sure it sounds alot 
cooler on electric, but here is what I play on my steel-string acoustic, and it still sounds boss. This is
my very first tab so bare with me and any suggestions would be awesome. The tempo is very fast so its hard 
for me to really show you the correct spacing between each note. Just look up tsunami on youtube and you will
hear the speed and spacing. And trust me this is really not hard to play. Im only an ok player, i've been 
playing not even for a year yet and i was able to play it at the right speed after only 1 hour of practicing.
It's easy, sounds cool, and is honestly just really enjoyable to play :)
(i didn't include the long intro of boring nothingness so you can get straight to the good stuff)
e|----------------------------------------------------------------------------------------------------|
B|----------------------------------------------------------------------------------------------------|
G|--------9-9-9-9-------------------------------------------9-9-9-9-----------------------------------|   
D|------------------9-9-----------------------------------------------9-9-----------------------------|
A|------------------------12-12---10-10---9-9---9-10------------------------12-12---10-10---9-9---9-10|
E|0---------------------------------------------------12----------------------------------------------|
(play 4 times*^*)(second time around do not include the first E open bass note)

e|---------------------------------------|
B|---------------------------------------|
G|-9--9--------------9--9----------------|  ( Play 4 Times )
D|--------9-9-9-9--7---------------------|
A|---------------------------9-9-9-10--7-|
E|---------------------------------------|

 (Pause) 
(here's where it you have to strum with the pick)

e|---------------------------------------------------------------------------------------------------------|
B|---------------------------------------------------------------------------------------------------------|
G|---------------------------------------------------------------------------------------------------------|
D|-14-14-14-14---0 -0 ---0 -0 ---0 -0 ---0-0---0-0 --0----14-14-14-14---0 -0 ---0 -0 ---0 -0 ---0-0---0-0 -|
A|-0 -0 -0 -0 ---14-14---12-12---10-10---9-9---9-10--7----0 -0 -0 -0 ---14-14---12-12---10-10---9-9---9-10-|
E|-0 -0 -0 -0 ---0 -0 ---0 -0 ---0 -0 ---0-0---0-0 --0----0 -0 -0 -0 ---0 -0 ---0 -0 ---0 -0 ---0-0---0-0 -|
 (play 4 times^)


(or you could play that part*^* like this *v* with an upward strum for all notes instead of downward, 
whichever fits your style)
e|---------------------------------------------------------------------------------------------------------|
B|---------------------------------------------------------------------------------------------------------|
G|---------------------------------------------------------------------------------------------------------|
D|-14-14-14-14--------------------------------------------14-14-14-14--------------------------------------|
A|-0 -0 -0 -0 ---14-14---12-12---10-10---9-9---9-10--7----0 -0 -0 -0 ---14-14---12-12---10-10---9-9---9-10-|
E|-0 -0 -0 -0 ---0 -0 ---0 -0 ---0 -0 ---0-0---0-0 --0----0 -0 -0 -0 ---0 -0 ---0 -0 ---0 -0 ---0-0---0-0 -|

e|---------------------------------------------------|
B|---------------------------------------------------|
G|---------------------------------------------------|
D|---14--14----0 -0 -0 -0 --0 -14--14----0-0-0-0 --0-| (Play 4 times)
A|---0 --0 ----14-14-14-14--12-0 --0 ----9-9-9-10--7-|
E|---0 --0 ----0 -0 -0 -0 --0 -0 --0 ----0-0-0-0 --0-|

and then you cam just restart or do whatever variations of these progressions you 
please :D have fun!

************************************
All strumming pattern is down.
| /   slide up
| \   slide down
| h   hammer-on
| p   pull-off
| ~   vibrato
| +   harmonic
| x   Mute note
| b   Bend
| pb  Pre-bend
| br  Bend release
| pbr Pre-bend release
| brb Bend release bend

************************************





            
            
Suggest correction
Creating personal tab
Creating personal tab
You can edit any tab online and save it as your Personal.

You can edit, replace or remove any tab part or add personal notes – all changes will be seen only by you.

Personal tabs can be accessed anytime from any device, even offline.
Learn more »
Give kudos to tab author, rate the tab!
1 2 3 4 5
comments
print report bad tab
guest
You may want to rate the tab now too:
select rating
Wanna post a correction for this tab? Suggest correction