Oops, an error
Loading. Please wait.

The Crucifiction Is Now bass

by Dwarves
436 views 1 this week
no commentswrite comment
1 2 3 4 5
3 more votes to show rating
add to favorites
×
Save as Personal and add changes to this tab that will be seen only by you. Learn more ›
×
You can save this tab as Personal to edit and correct it or add notes. All changes will be seen only by you. Learn more »
launch autoscroll
font size
0
reset
guitar tuner
edit
Autoscroll
slow
fast
+/-
esc
set tempo
stop
Intro (Main Riff)                 x2
G-----------------------------------|
D-----------------------------------|
A-----------------------------------|
E-5-5-5-5-5-5-5-5--1-1-1-1--3-3-3-3-|

Verse (Main Riff)                 x2
G-----------------------------------|
D-----------------------------------|
A-----------------------------------|
E-5-5-5-5-5-5-5-5--1-1-1-1--3-3-3-3-|

Bridge/Solo ("I love the sound of breaking skulls...")
G-----------------------------------------------------|
D-----------------------------------------------------|
A-------5-5-5-------------------------7-7-7-7-7-7-7-7-|
E-5---5-------5---5-8-8-8-5---5-3-3-3-----------------|

Verse 2 (Main Riff)               x2
G-----------------------------------|
D-----------------------------------|
A-----------------------------------|
E-5-5-5-5-5-5-5-5--1-1-1-1--3-3-3-3-|

Bridge/Solo
G-----------------------------------------------------|
D-----------------------------------------------------|
A-------5-5-5-------------------------7-7-7-7-7-7-7-7-|
E-5---5-------5---5-8-8-8-5---5-3-3-3-----------------|

Outro (Main Riff)                 x6
G-----------------------------------|
D-----------------------------------|
A-----------------------------------|
E-5-5-5-5-5-5-5-5--1-1-1-1--3-3-3-3-|


Not that it's hard to follow i figured i'd add the lyrics in just in case

**VERSE 1** (MAIN RIFF x2)

This day forward to vanquish boldly
The crucifixion is now my lovely
This day forward and this way only
The crucifixion is now my lovely

**BRIDGE** (BRIDGE/SOLO x1)

I love the sound of breaking skulls
That limousine that pulls
Over the heads of all
The people that pay to see me

**VERSE 2** (MAIN RIFF x2)

This day Never with hesitating
Teach children to worship Satan
Warping the mind of generation
Teacher children to worship Satan

**SOLO** (BRIDGE/SOLO x1)

**OUTRO** (MAIN RIFF x6)

The Crucifixion is now

            
            
Suggest correction
Creating personal tab
Creating personal tab
You can edit any tab online and save it as your Personal.

You can edit, replace or remove any tab part or add personal notes – all changes will be seen only by you.

Personal tabs can be accessed anytime from any device, even offline.
Learn more »
Give kudos to tab author, rate the tab!
1 2 3 4 5
comments
print report bad tab
guest
You may want to rate the tab now too:
select rating
Wanna post a correction for this tab? Suggest correction