Oops, an error
Loading. Please wait.

Crazy Over Me chords

version 2
version 2

Whole song

1,243 views 6 this week
no commentswrite comment
1 2 3 4 5
x 9
add to favorites
×
Save as Personal and add changes to this tab that will be seen only by you. Learn more ›
×
You can save this tab as Personal to edit and correct it or add notes. All changes will be seen only by you. Learn more »
launch autoscroll
font size
0
reset
transpose
0
reset
display chords
guitar tuner
edit
Autoscroll
slow
fast
+/-
esc
set tempo
stop
Strumming
There is no strumming pattern for this song yet. and get +5 IQ
-------------------------------------------------------------------------------
                          Crazy Over Me - Dylan Scott
-------------------------------------------------------------------------------
Tabbed by: mgwilson15

They already had a good chord tab on here but I wanted to do one with the intro 
included that the other guitar plays in the song cause I love the way it sounds 
and it can give you something else to play with the song to spice it up. Let me 
know if there's mistakes. He plays all chords with the pinky and ring finger 
on the 3rd fret like how it's shown below. I play all of them except the Am with
the pinky and ring on the 3rd fret like he does. Up to you though! 

Tuning: Standard
Capo 2

C(Walkdown)
e|--3----0---|     He does these add ons and pull-offs a lot throughout.  
B|--3----0---|       Just listen, experiment and have fun. Enjoy!
G|--0----0---|
D|--0h2--0---|
A|--3----3---|
E|-----------|

Intro: (G, D, Em, C)
e|--------------------------------------------------|
B|-7/8--8/7--7/5--5/3-------------------------------|
G|---------------------2/4---4/5--5/4--4--4/2(~)----|
D|--------------------------------------------------|
A|--------------------------------------------------|
E|--------------------------------------------------|

e|---------------------------3----------------------|
B|-7/8--8/7--7/5--5/3----------3--------------------|
G|---------------------2/4-------4/2--2--2p0--------|
D|--------------------------------------------------|
A|--------------------------------------------------|
E|--------------------------------------------------|

Verse:
G                                D
She said "Honey, do you think I'm smart?"
                            Em
I said "Of course you are."
                          C
Ain't you lying here in my arms?"
     G                                        D
She smiled, "Well does this shirt make me look fat?"
                        Em
I kinda leaned back and laughed
                C
I said, "Honey, what kind of question is that?"

Chorus:
            G
Well you're crazy
              D                                            Em
There ain't a girl in this whole wide world that could ever make me
C                            G
Feel the way I do about you, baby
             D
Yeah, you're crazy
    Em            D                  C    C(Walkdown)     Am
But you can be as crazy as you wanna be
Am                C(Stop)  
As long as you're crazy over me

Interlude: (G)
e|---------------------------------3-------------|
B|-7/8--8/7--7/5--5/3----------------3-----------|
G|---------------------2/4---4/5-------5---------|
D|-----------------------------------------------|
A|-----------------------------------------------|
E|-----------------------------------------------|

Verse:
G                       D
You can fuss about your hair
                                Em
Say you ain't got no clothes to wear
                                  C
But when you finally make up your mind,
                           G
You go and change one more time
                        D
We can go out on Friday nights
                            Em
A pretty girl could walk on by
                                      C
And if you really think I'd check her out

Well come on now...

Chorus:
       G
You're crazy
              D                                             Em
There ain't a girl in this whole wide world that could ever make me
C                            G
Feel the way I do about you, baby
             D
Yeah, you're crazy
    Em            D                  C    C(Walkdown)     Am
But you can be as crazy as you wanna be
Am                C
As long as you're crazy over me

Bridge:
C
And all my stubborn ways
G
Picking up the messes I make
Em
I even ruined our first date
D(Stop)                 
Well girl, for goodness sakes

Outro:
                G
You've gotta be crazy
   D                               Em
To ever let a boy like me call you "baby"
        C                            G
I thank God every day that you're my lady
                    D
Now that's a little crazy
      Em           D                  C    C(Walkdown)   Am
So go on and be as crazy as you wanna be
                  C(Stop)
As long as you're crazy over me  

(G, D)
e|--------------------------------------------------|
B|-7/8--8/7--7/5--5/3-------------------------------|
G|---------------------2/4---4/5--5/4--4--4/2(~)----|
D|--------------------------------------------------|
A|--------------------------------------------------|
E|--------------------------------------------------|

           Em        C(Hold until G) [Can do walkdown]
Crazy over me

End on G
  
    OR

Crazy over me
e|-------------3------------------|
B|---------------3----------------|
G|----------------4/2--2/4---0----|
D|--------------------------------|
A|--------------------------------|
E|--------------------------------|

e|---------------------------------3---|
B|-7/8--8/7--7/5--5/3--------------3---|
G|-----------------------2-/4(~)---0---|
D|---------------------------------0---|
A|---------------------------------2---|
E|---------------------------------3---|


************************************

| /   slide up
| \   slide down
| h   hammer-on
| p   pull-off
| ~   vibrato

************************************

            
            
Suggest correction
Creating personal tab
Creating personal tab
You can edit any tab online and save it as your Personal.

You can edit, replace or remove any tab part or add personal notes – all changes will be seen only by you.

Personal tabs can be accessed anytime from any device, even offline.
Learn more »
comments
print report bad tab
guest
You may want to rate the tab now too:
select rating
Wanna post a correction for this tab? Suggest correction