Oops, an error
Loading. Please wait.

Boyz N The Hood tab

version 1
version 1

Whole song

Interactive

43,103 views 33 this week
1 commentread comment
1 2 3 4 5
x 5
add to favorites
×
Save as Personal and add changes to this tab that will be seen only by you. Learn more ›
×
You can save this tab as Personal to edit and correct it or add notes. All changes will be seen only by you. Learn more »
launch autoscroll
font size
0
reset
how to read this tab
guitar tuner
edit
Autoscroll
slow
fast
+/-
esc
set tempo
stop
Author
Unregistered
Standard Tuning.

moderate slow gangsta folk

fig 1. finger picked

e|-------------------------------------|
B|-2---------2----------------2--------|
G|-------2-------2-------2--------2----|
D|-----2-------2-------2--------2------|
A|-0-------0--------4-------4----------|
E|-------------------------------------|

e|-----------0----------------0--------|
B|-------3-------0-------4--------4----|
G|-----2-------2-------2--------2------|
D|-0-------0--------1-------1----------|
A|-------------------------------------|
E|-------------------------------------|

e|-----------2----------------2--------|
B|-5-----5-------5-------2--------2----|
G|-----2-------2-------2--------2------|
D|-2-------2--------3-------3----------|
A|-------------------------------------|
E|-------------------------------------|

e|-----------2----------------2--------|
B|-------2-------2-------3--------3----|
G|-----2-------2-------2--------2------|
D|-4-------2--------0-------0----------|
A|-------------------------------------|
E|-------------------------------------| end fig 1.

[Chorus: fig 2] (x2)

   A               F#m          B7           E
e|----------------------------------2--2---------0--0-----|
B|-2--2--2--2-x-------------2-------4--4---------0--0-0---|
G|-2--2--2--2-x--------2--2-2-2--2--2--2-0-1--1--1--1-0---|
D|-2--2--2--2-x--4--4--4--4-2-4--4--4--4-0-2--2--2--2-0---|
A|-0--0--0--0-x--4--4--4--4-2-2--2--2--2-0-2--2--2--2-----|
E|------------x--2--2--2--2-2--------------0--0--0--0-----|

gtr 2, lead

E|--------------------------------------------------|
B|----------------------------------5--7------9-----|
G|--------------------------------------------------|
D|-----------------------------4/6-------/9---------|
A|--------------------------------------------------|
E|--------------------------------------------------|

   A               F#m          B7          E
E|----------------------------------------------------|
B|------10---12---14\12---9------10--------9\7-5\3-2--|
G|--------------------------------9-------------------|
D|-9/11------12---14\12--11----------------9\7-6\4-2--|
A|----------------------------------------------------|
E|----------------------------------------------------|

v2 fig 1
[Chorus 2 fig 2] then

e|------------2-2-2--2------------------0-------0-0-----|
B|-2-2-2--2-2-3-3-3--3-0--2--2-2--2-----0-------0-0-----|
G|-2-2-2--2-2-2-2-2--2-0--2--2-2--2-----1-------1-1-----|
D|-2-2-2--2-2-0-0-0--0-0--2--2-2--2-----2-------2-2-----|
A|-0-0-0--0-0-------------0--0-0--------2-------2-2-----|
E|--------------------------------2b----0-------0-0-----|

v3 w/fig1.x4

play 2nd time over-repeat w/same notes different spots

e|-------12------12-------------12-------12-------|
B|--10--------10----10---10-----------10----10----|
G|------------------------------------------------|
D|------------------------------------------------|
A|------------------------------------------------|
E|------------------------------------------------|

end with chorus and fig 1.



************************************

| x  Dead note
| /  Slide up
| \  Slide down
| b  Bend

************************************

            
            
Suggest correction
Creating personal tab
Creating personal tab
You can edit any tab online and save it as your Personal.

You can edit, replace or remove any tab part or add personal notes – all changes will be seen only by you.

Personal tabs can be accessed anytime from any device, even offline.
Learn more »
comments
print report bad tab
1 comment total.
0 reply
cooljew 153 Mar 01, 2009 09:57 PM

finally a tab with the right chorus, thank you.

guest
Wanna post a correction for this tab? Suggest correction