Oops, an error
Loading. Please wait.
We have an official Hotel California tab made by UG professional guitarists. Check out the tab »
×

Hotel California intro tab

version 3
version 3

Whole song

by Eagles
8,338 views 771 this week
3 commentsread comments
1 2 3 4 5
x 18
add to favorites
×
Save as Personal and add changes to this tab that will be seen only by you. Learn more ›
×
You can save this tab as Personal to edit and correct it or add notes. All changes will be seen only by you. Learn more »
launch autoscroll
font size
0
reset
how to read this tab
guitar tuner
backing track
0:00
0:00
edit
Autoscroll
slow
fast
+/-
esc
set tempo
stop
YOU MUST USE A CAPO ON THE 7TH FRET FOR THIS TAB. Standered tuning, EADGBe. This intro consists of picking
individual strings that make up chords. If you follow the chords the song is relatively easy to learn. If you
don't know any of the chords just look up the finger placement on Google images. I have only played this tab
on a 6 string, some minor changes may be required for it to sound perfect on a 12 string.  


[Intro]
   Em              B7            Dsus2                Am+C#
e|-0---------0---------------2---------0----------------------0-|
B|-0-----0-----0-2-------0-----------3---3-----3----3------0----|
G|-0---0---0---0-2-----2---2-------2---------2----2------0---0--|
D|-2-2---------------1---------1-0---------0-----------2--------|
A|-2---------------2----------------------------0----4----------|
E|--------------------------------------------------------------|

   C                   G                     Am                          
e|-----------0---------------3-------------------------0-----------|
B|-------1-----1-----------3---3-----3-----3-------1-------------0-|
G|-----0---0---------0---0---------0-----0-------2---2-----2-------|
D|---2-----------0h2---0-----------------------2---------2-----2---|
A|-3----------3------------------2-----------0---------------------|
E|-------------------------------------3---------------------0-----|

   B7
e|-----------2-|
B|-------0-----|
G|-----2---2---|
D|---1---------|
A|-2-----------|
E|-------------|

************************************

 h =  Hammer-on

************************************

            
            
Suggest correction
Creating personal tab
Creating personal tab
You can edit any tab online and save it as your Personal.

You can edit, replace or remove any tab part or add personal notes – all changes will be seen only by you.

Personal tabs can be accessed anytime from any device, even offline.
Learn more »
comments
print report bad tab
3 comments total.
+2 reply
adi.dasgupta 10 Aug 25, 2017 11:28 AM

AWESOME!!!

0 reply
darren.nicholas307 10 Nov 15, 2017 11:23 AM

Brilliant👍

0 reply
hamtramckmike 10 Nov 25, 2017 03:17 PM

7th fret capo!!

guest
You may want to rate the tab now too:
select rating
Wanna post a correction for this tab? Suggest correction