Oops, an error
Loading. Please wait.
We have an official Lyin Eyes tab made by UG professional guitarists. Check out the tab »
×
by Eagles
5,565 views 15 this week
2 commentsread comments
1 2 3 4 5
x 4
add to favorites
×
Save as Personal and add changes to this tab that will be seen only by you. Learn more ›
×
You can save this tab as Personal to edit and correct it or add notes. All changes will be seen only by you. Learn more »
launch autoscroll
font size
0
reset
guitar tuner
backing track
0:00
0:00
edit
Autoscroll
slow
fast
+/-
esc
set tempo
stop
Author
Difficulty
Lying Eyes
Songwriters: Don Henley and Glenn Frey
Released 1975 and reached number 2 in Billboard Hot 100
Original Bassist: Randy Meisner
Tab by bass50611 as per album version. Having checked the
other versions thought it was time to put the correct tab
down and NOTE: every verse is different. YOU REALLY HAVE GOT
TO LISTEN.
Any comments email me at bass254@btinternet.com

Intro:
G|----7---------------------------------------------------|
D|-5-5---5-55------5-----5----------------7---5-5----5-5--|
A|--------------3-3---3-3----23----7---5-5-------5------5-|
E|------------------------------5-5-----------------------|

Verse 1:
G|-----------------------------------------------------------|
D|-5-55---5-55-----5------5----------------------7---------4-|
A|--------------3-3----3-3----23----7-----7---5-5---5-5--7---|
E|-------------------------------5-5---5-5-------------------|

G|---------------------------------------------------------|
D|-5-55---5-55-----5------5----------------5---5-5----5-5--|
A|--------------3-3----3-3----23----7---3-3-------5------5-|
E|-------------------------------5-5-----------------------|

Verse 2:
G|-----------------------------------------------------------|
D|-5-55---5-55----5------5------------------------7--------4-|
A|-------------3-3----3-3----23----7-----7---4-5-5---5-5--7--|
E|------------------------------5-5---5-5---7----------------|

G|-----------------------------------------------------------|
D|-5-55---5-55-----5------5----------------5---5-5-----------|
A|--------------3-3----3-3----23----7---3-3-------5---3-3--5-|
E|-------------------------------5-5-------------------------|

Verse 3:
G|----------------------------------------------------------|
D|-5-55---5-55-----5------5----------------------7--------4-|
A|--------------3-3----3-3----23----7-----7---5-5---5-5--7--|
E|-------------------------------5-5---5-5------------------|
                                                      .
G|------------------------------------------------------|
D|-5-55---5-55-----5------5----------------5---5-5----5-|
A|--------------3-3----3-3----23----7---3-3-------5-5---|
E|-------------------------------5-5--------------------|

Chorus:
G|-----------------------------------------------------|
D|-5-55---5-55---5-55-5---5-4-2-22-----4---------------|
A|-------------------5--------------2-2-2-----7---5-55-|
E|-----------------------------------------5-5-5-------|

G|--------12--12-12---------------------------|
D|-5-55-/---------------5---------------------|
A|-------------------3-3-3-----7---------5-55-|
E|--------------------------5-5----5-55-------|

Repeat Intro:

Verse 4:
G|-------------------------------------------------------------------|
D|-5-55---5-55----5-----5--5-6-7-7---7-7-7-12---12-10---10-9---9-7-7-|
A|-------------3-3---3-3----------7-----7----------------------------|
E|-------------------------------------------------------------------|

G|-----------------------------------------------------------|
D|-5-55---5-55-----5------5----------------5---5-5-----------|
A|--------------3-3----3-3----23----7---3-3-------5---3-3--5-|
E|-------------------------------5-5-------------------------|

Verse 5:
G|----------------------------------------------------------|
D|-5-55---5-55-----5------5----------------------7--------4-|
A|--------------3-3----3-3----3----7-----7---5-5---5--5-7---|
E|--------------------------------5-5---5-5-----------------|
                                                      .
G|------------------------------------------------------|
D|-5-55---5-55-----5------5----------------5---5-5----5-|
A|--------------3-3----3-3----23----7---3-3-------5-5---|
E|-------------------------------5-5--------------------|

Repeat Chorus:

Repeat Intro:

Verse 6:
G|----------------------------------------------------------|
D|-5-55---5-55-----5------5----------------------7--------4-|
A|--------------3-3----3-3----23----7-----7---5-5---5--5-7--|
E|-------------------------------5-5---5-5------------------|

G|-----------------------------------------------------------|
D|-5-55---5-55-----5------5----------------5---5-5-----------|
A|--------------3-3----3-3----23----7---3-3-------5---3-3--5-|
E|-------------------------------5-5-------------------------|

Verse 7:
G|-----------------------------------------------------------|
D|-5-55--------------5------5---------------------7--------4-|
A|----------0-2---3-3----3-3----23----7-----7--5-5---5--5-7--|
E|-------3-3-----------------------5-5---5-5-----------------|

G|----------------------------------------------------------|
D|-5-5---5-5-------5------5----------------5---5-5---5-5----|
A|----5-----5---3-3----3-3----23----7---3-3-------5-----5---|
E|-------------------------------5-5------------------------|

Verse 8:
G|-----------------------------------------------------------|
D|-5-55---5-55----5------5------------------------7--------4-|
A|-------------3-3----3-3----23----7-----7---4-5-5---5-5--7--|
E|------------------------------5-5---5-5---7----------------|
                                                       .
G|-------------------------------------------------------|
D|-5-55---5-55-----5------5-----------------5---5-5----5-|
A|--------------3-3----3-3----2-3----7---3-3-------5-5---|
E|--------------------------------5-5--------------------|

Repeat Chorus:

Outro:
G--------------------------------------------------------------------|
D-5-55---5-55----------5-55---5-55----------5-55---5-55--------------|
A-----------------5-55-----------------5-55------------------5-55----|
E------------5-55-----------------5-55------------------5-55-------3-|

            
            
Suggest correction
Creating personal tab
Creating personal tab
You can edit any tab online and save it as your Personal.

You can edit, replace or remove any tab part or add personal notes – all changes will be seen only by you.

Personal tabs can be accessed anytime from any device, even offline.
Learn more »
comments
print report bad tab
2 comments total.
0 reply
hgebhart5 10 Dec 05, 2014 03:05 PM

Finally a good one. The bass50611 ?

0 reply
hgebhart5 10 Dec 05, 2014 03:10 PM

Compared to the other tabs I have to revise my rating. Must be 5 stars.
Thx bass50611

guest
You may want to rate the tab now too:
select rating
Wanna post a correction for this tab? Suggest correction