Oops, an error
Loading. Please wait.
We have an official Lyin Eyes tab made by UG professional guitarists. Check out the tab »
×
by Eagles
67,107 views 366 this week
3 commentsread comments
1 2 3 4 5
x 14
add to favorites
×
Save as Personal and add changes to this tab that will be seen only by you. Learn more ›
×
You can save this tab as Personal to edit and correct it or add notes. All changes will be seen only by you. Learn more »
launch autoscroll
font size
0
reset
how to read this tab
guitar tuner
backing track
0:00
0:00
edit
Autoscroll
slow
fast
+/-
esc
set tempo
stop
Author
Lyin Eyes – Simplified Acoustic Guitar fills for Solo guitar
(Section numbers refer to YouTube Video  http://www.youtube.com/watch?v=CIAZaWLawY4)
Tabbed by Baddguitar


[Intro]


    G | Gmaj7      C                       Am       D7           G
e|--3----2---2-3-2-0------------------------0----------------------|
B|--0----0---------1---------0-----------0--1------3-3-------------|
G|--0----0---------0-----------2--0----2----2---0--4-4-2--0----0---|
D|--0----0---------2------------------------2---------------4------|
A|--2----x---------3-----------------------------------------------|
E|--3----3---------------------------------------------------------|

   G
e|----------------------------------3-----|
B|--7-8-7-----5-7-5----3-5-3----1---0-----|
G|--7-9-7-----5-7-5----4-5-4----2---0-----|
D|----------------------------------0-----|
A|----------------------------------2-----|
E|----------------------------------3-----|


[Verse]

(standard chords)


G               Gmaj7            C
City girls just seem to find out early
Am                            D
How to open doors with just a smile
  G                Gmaj7             C
A rich old man and she won't have to worry
Am                     C              G
She'll dress up all in lace and go in style


[Verse 2 fill]


          Am (Strumming)           D                           G
e|--------0-----------------------------8p5---5-----5----------3---|
B|--------1---------------------------------7---5h7---7p5------0---|
G|--------2-----------------------------------------------7----0---|
D|--------2------------------------0-(let ring)----------------0---|
A|--------0----------------------------------------------------2---|
E|-------------------------------------------------------------3---|
…every form of refuge has it’s price                and it breaks her heart…

   G                Gmaj7               C                       Am
e|-3------------------2-----------------0-----------------------0-----|
B|-0------------------0-----------------1---------0----------0--1-----|
G|-0------------------0-----------------0-----------2-0---2-----2-----|
D|-0------------------0-----------------2-----------------------2-----|
A|-2------------------x-----------------3-----------------------0-----|
E|-3------------------3-----------------------------------------------|
breaks her heart to think her love is only             Given to…


[Verse 3 fill]

       G             Gmaj7               C
So she tells him she must go out for the evening

e|-----7----------5---------|
B|-------8-----------7------|
G|---------9-\-7--------7\--|
D|--------------------------|
A|--------------------------|
E|--------------------------|

Am                            D
To comfort an old friend who's feelin' down

e|------------------------------------3---|
B|----7-------6-------5------3--2--1--0---|
G|------7-------6-------5----4--3--2--0---|
D|--------7\6-----6/5----5---4--3--2--0---|
A|------------------------------------2---|
E|------------------------------------3---|

       G                 Gmaj7          C
But he knows where she's goin' as she's leavin'

e|-----7----------5---------|
B|-------8-----------7------|
G|---------9-\-7--------7\--|
D|--------------------------|
A|--------------------------|
E|--------------------------|

       Am             C                G      G  C/G  G  D7  G
She is headed for the cheatin' side of town


[Chorus]

          G    C/G             G      C  G
You can't hide      your lyin' eyes
          Em    Bm               Am (fill see below)   D7
And your smile      is a thin disguise

     Am              D7
  (pick notes while strumming)
e|----0---0----0--3--2--|
B|----1-----3--------1--|
G|----2--------------2--|
D|----2--------------0--|
A|----0-----------------|
E|----------------------|

             G          F            C        A
I thought by now      you'd realize
Am                    D                     G
There ain't no way to hide your lyin eyes

(repeat intro - see section 1)


[Verse 4 fill]

        Am                                   D
...with fiery eyes and dreams no one could steal

e|-----2--2------------------------2-2-----------2-2--------------------------|
B|-----3--3-----------3-3----------3-3-----------3-3--------------------------|
G|-----2--2-----------2-2----------2-2-----------2-2--------------------------|
D|--0--0--0-----------0-0----------2-2-----------0-0--------------------------|
A|---------------3-------------2------------0---------------------------------|
E|----------------------------------------------------------------------------|


[Verse 5 Fills]

G               Gmaj7            C
She rushes to his arms,  and they fall together

e|-----7----------5---------|
B|-------8-----------7------|
G|---------9-\-7--------7\--|
D|--------------------------|
A|--------------------------|
E|--------------------------|


Am                            D
She whispers that it's only for awhile


e|---2----0h2---------5--------8-----3-------|
B|---3--3----------------------------0-------|
G|---2-----------3/5------5/9--------0-------|
D|---0-------------------------------0-------|
A|-----------------------------------2-------|
E|-----------------------------------3-------|

  G                Gmaj7             C
She swears that soon she'll be comin' back forever

e|-----7----------5---------|
B|-------8-----------7------|
G|---------9-\-7--------7\--|
D|--------------------------|
A|--------------------------|
E|--------------------------|


Am                     C              G      G  C/G  G  D7  G
She pulls away and leaves him with a smile


[Verse 8 Fills]

G              Gmaj7              C
My, oh my, you sure know how to arrange things

e|-----7----------5---------|
B|-------8-----------7------|
G|---------9-\-7--------7\--|
D|--------------------------|
A|--------------------------|
E|--------------------------|

Am                            D
You set it up so well, so carefully


e|---------10---------8---------7----7-6-5---3---|
B|-------------------------------------------0---|
G|----/11------11\9-------9\7--------7-6-5---0---|
D|-------------------------------------------0---|
A|-------------------------------------------2---|
E|-------------------------------------------3---|

         G              Gmaj7           C
Ain't it funny how your new life didn't change things


     C                       Am
e|---0-----------------------0---|
B|---1---------0----------0--1---|
G|---0-----------2-0---2-----2---|
D|---2-----------------------2---|
A|---3-----------------------0---|
E|-------------------------------|

Am                        C                 G      G  C/G  G  D7  G
You're still the same old girl you used to be


[Outro]

  Am              D           G             C           G
e|----------------------------3-------------8--7-5------7---|
B|----1-1--1--0---3-----------0-------------5------8----8---|
G|----0h2--2------2-0---------0-------------5-----------7---|
D|----0h2--2------0----2--0---0-------------5---------------|
A|----------------------------2-----------------------------|
E|----------------------------3-----------------------------|



Lyin’ Eyes - CHORDS
Tempo:   1=66

[Intro]

|G   | Gmaj7 |   C   |    | Am  | D7    G


V1
G               Gmaj7            C
City girls just seem to find out early
Am                            D
How to open doors with just a smile
  G                Gmaj7             C
A rich old man and she won't have to worry
Am                     C              G
She'll dress up all in lace and go in style

V2  (Same chords as Verse 1)
Late at night a big old house gets lonely
I guess ev'ry form of refuge has its price
And it breaks her heart to think her love is only
      Am            C                G     Am7  D7
given to a man with hands as cold as ice

V3  (Same chords as Verse 1)
So she tells him she must go out for the evening
To comfort an old friend who's feelin' down
But he knows where she's goin' as she's leavin'
       Am             C                G      G  C/G  G  D7  G
She is headed for the cheatin' side of town


[Chorus]

          G    C/G             G      C  G
You can't hide      your lyin' eyes
          Em    Bm            Am        D7
And your smile      is a thin disguise
             G          F            C        A
I thought by now      you'd realize
Am                    D                     G
There ain't no way to hide your lyin eyes

Intro  Chords


V4  (Same chords as Verse 1)
On the other side of town a boy is waiting
with fiery eyes and dreams no one could steal
She drives on through the nice anticipating
'Cause he makes her feel the way she used to feel


V5  (Same chords as Verse 1)
She rushes to his arms,  and they fall together
She whispers that it's only for awhile
She swears that soon she'll be comin' back forever
She pulls away and leaves him with a smile

[Chorus]
Intro Chords

V6  (Same chords as Verse 1)
She gets up and pours herself a strong one
And stares out at the stars up in the sky
Another night, it's gonna be a long one
She draws the shade and hangs her head to cry


V7  (Same chords as Verse 1)
She wonders how it ever got this crazy
She thinks about a boy she knew in school
Did she get tired or did she just get lazy?
She's so far gone she feels just like a fool


V8  (Same chords as Verse 1)
My, oh my, you sure know how to arrange things
You set it up so well, so carefully
Ain't it funny how your new life didn't change things
You're still the same old girl you used to be


[Chorus]

Am                    D7              G          Gmaj7
There ain't no way to hide your lyin' eyes
Am               D7              G          Gmaj7
Honey, you can't hide your lyin' eyes

Am   D7   G  C  G



************************************

| x  Dead note
| h  Hammer-on
| p  Pull-off
| /  Slide up
| \  Slide down
| (let ring) 

************************************

            
            
Suggest correction
Creating personal tab
Creating personal tab
You can edit any tab online and save it as your Personal.

You can edit, replace or remove any tab part or add personal notes – all changes will be seen only by you.

Personal tabs can be accessed anytime from any device, even offline.
Learn more »
comments
print report bad tab
3 comments total.
+1 reply
Venom0120 39 Jun 14, 2015 01:09 PM

Tnx for the awesome tab!

+1 reply
Telecaster99 20 Jun 27, 2015 01:06 AM

Perfect tab! Thanks for sharing!

0 reply
E IPSE 20 Nov 10, 2017 08:32 PM

great tab, I use it to sing along <3

guest
You may want to rate the tab now too:
select rating
Wanna post a correction for this tab? Suggest correction