Oops, an error
Loading. Please wait.

Most Of Us Are Sad tab

version 2
version 2

Whole song

Interactive

by Eagles
232 views 1 this week
no commentswrite comment
1 2 3 4 5
3 more votes to show rating
add to favorites
×
Save as Personal and add changes to this tab that will be seen only by you. Learn more ›
×
You can save this tab as Personal to edit and correct it or add notes. All changes will be seen only by you. Learn more »
launch autoscroll
font size
0
reset
how to read this tab
guitar tuner
edit
Autoscroll
slow
fast
+/-
esc
set tempo
stop
Author
Difficulty
MOST OF US ARE SAD

As recorded by Eagles
(From the 1972 Album EAGLES)

Words and Music by Glenn Frey

Transcribed by Slowhand


Gtr I (E A D G B E) - 'Bernie Leadon - Acoustic Guitar'
Gtr II (E A D G B E) - 'Glenn Frey - Acoustic Guitar'
Gtr III (E A D G B E) - 'Glenn Frey - Electric Guitar'


 Intro
  Q=106
  C
 3/4
  Gtr I (Ac. Gtr.)
   H.            H.            a H.
|--------------|-------------|---------------|
|--------------|-------------|---------------|
|--5-----------|-7-----------|-7s9-----------|
|--------------|-------------|---------------|
|--------------|-------------|---------------|
|--------------|-------------|---------------|
|
| Gtr II (Ac. Gtr.)
|  Q   E E E E   Q   E E E E     Q   E E E E
|-^0---0-0-0-0-|-0---0-0-0-0-|---0---0-0-0-0-|
|-^1---1-1-1-1-|-1---1-1-1-1-|---1---1-1-1-1-|
|-^0---0-0-0-0-|-0---0-0-0-0-|---0---0-0-0-0-|
|-^2---2-2-2-2-|-2---2-2-2-2-|---2---2-2-2-2-|
|-^3---3-3-3-3-|-3---3-3-3-3-|---3---3-3-3-3-|
|--------------|-------------|---------------|


                 Fmaj7
  a Q  Q   Q     a H.            Q  +Q.     E
|--------------|---------------|----------------|
|--------------|---------------|----------------|
|-9s7--5-------|---------------|-5--(5)---------|
|----------5---|-5s7-----------|------------7---|
|--------------|---------------|----------------|
|--------------|---------------|----------------|
|
|   Q  E E E E     Q   E E E E   Q   E  E E E
|---0--0-0-0-0-|---0---0-0-0-0-|-0---0--0-0-0---|
|---1--1-1-1-1-|---1---1-1-1-1-|-1---1--1-1-1---|
|---0--0-0-0-0-|---2---2-2-2-2-|-2---2--2-2-2---|
|---2--2-2-2-2-|---3---3-3-3-3-|-3---3--3-3-3---|
|---3--3-3-3-3-|---------------|----------------|
|--------------|---------------|----------------|


    Dm11          G7         C
  a H.            +H.            H.
|---------------|--------------|-------------|
|---------------|--------------|-------------|
|-5h7-----------|-(7)----------|-5-----------|
|---------------|--------------|-------------|
|---------------|--------------|-------------|
|---------------|--------------|-------------|
|
|   Q   E E E E    Q   E E E E   Q   E E E E
|---3---3-3-3-3-|--1---1-1-1-0-|-0---0-0-0-0-|
|---1---1-1-1-1-|--0---0-0-0-1-|-1---1-1-1-1-|
|---2---2-2-2-2-|--0---0-0-0-0-|-0---0-0-0-0-|
|---0---0-0-0-0-|--0---0-0-0-2-|-2---2-2-2-2-|
|---------------|--2---2-2-2-3-|-3---3-3-3-3-|
|---------------|--3---3-3-3---|-------------|


  H.            a H.            a Q  Q   Q
|-------------|---------------|--------------|
|-------------|---------------|--------------|
|-7-----------|-7s9-----------|-9s7--5-------|
|-------------|---------------|----------5---|
|-------------|---------------|--------------|
|-------------|---------------|--------------|
|
| Q   E E E E     Q   E E E E     Q  E E E E
|-0---0-0-0-0-|---0---0-0-0-0-|---0--0-0-0-0-|
|-1---1-1-1-1-|---1---1-1-1-1-|---1--1-1-1-1-|
|-0---0-0-0-0-|---0---0-0-0-0-|---0--0-0-0-0-|
|-2---2-2-2-2-|---2---2-2-2-2-|---2--2-2-2-2-|
|-3---3-3-3-3-|---3---3-3-3-3-|---3--3-3-3-3-|
|-------------|---------------|--------------|


    Fmaj7                          Dm11      G
  a H.            Q  +Q.     E   a H.
|---------------|--------------|---------------|
|---------------|-5--(5)-------|---------------|
|---------------|-5--(5)-------|-5h7-----------|
|-5s7-----------|------------7-|---------------|
|---------------|--------------|---------------|
|---------------|--------------|---------------|
|
|   Q   E E E E   Q   E  E E E     Q   E E E E
|---0---0-0-0-0-|-0---0--0-0-0-|---3---3-3-3-3-|
|---1---1-1-1-1-|-1---1--1-1-1-|---1---1-1-1-0-|
|---2---2-2-2-2-|-2---2--2-2-2-|---2---2-2-2-0-|
|---3---3-3-3-3-|-3---3--3-3-3-|---0---0-0-0-0-|
|---------------|--------------|-------------2-|
|---------------|--------------|-------------3-|


                1st Verse
            C    C
  +H      E E    Q  Q  E E   Q  Q   Q
|-----------3-||-3--3--3-3-|-3--3---3----|
|-----------1-||-1--1--1-1-|-1--1---1----|
|-(7)-------0-||-0--0--0-0-|-0--0---0----|
|-----------2-||-2--2--2-2-|-2--2---2----|
|-----------3-||-3--3--3-3-|-3--3---3----|
|-------------||-----------|-------------|
|
|  Q   Q  E E    Q  Q  E E   Q  E E E E
|--3---3--3-0-||-0--0--0-0-|-0--0-0-0-0--|
|--3---3--3-1-||-1--1--1-1-|-1--1-1-1-1--|
|--0---0--0-0-||-0--0--0-0-|-0--0-0-0-0--|
|--0---0--0-2-||-2--2--2-2-|-2--2-2-2-2--|
|--0---0--0-3-||-3--3--3-3-|-3--3-3-3-3--|
|--3---3--3---||-----------|-------------|


  Fmaj7                C                             Fmaj7                 Em
  Q  Q  E E   Q  Q   E E   Q  Q   E E   Q  Q   Q     Q  Q   E E   Q  Q   E E
|-1--1--3-3-|-3--3---3-3-|-3--3---3-3-|-3--3---3---|-1--1---3-3-|-3--3---3-0-|
|-1--1--1-1-|-1--1---1-1-|-1--1---1-1-|-1--1---1---|-1--1---1-1-|-1--1---1-0-|
|-2--2--2-2-|-2--2---2-0-|-0--0---0-0-|-0--0---0---|-2--2---2-2-|-2--2---2-0-|
|-3--3--3-3-|-3--3---3-2-|-2--2---2-2-|-2--2---2---|-3--3---3-3-|-3--3---3---|
|-----------|----------3-|-3--3---3-3-|-3--3---3---|------------|------------|
|-1--1--1-1-|-1--1---1---|------------|------------|-1--1---1-1-|-1--1---1---|
|
| Q  Q  E E   Q  E E E E   Q  E E E E   Q  E E E E   Q  E E E E   Q  E E E E
|-0--0--0-0-|-0--0-0-0-0-|-0--0-0-0-0-|-0--0-0-0-0-|-0--0-0-0-0-|-0--0-0-0-0-|
|-1--1--1-1-|-1--1-1-1-1-|-1--1-1-1-1-|-1--1-1-1-1-|-1--1-1-1-1-|-1--1-1-1-0-|
|-2--2--2-2-|-2--2-2-2-0-|-0--0-0-0-0-|-0--0-0-0-0-|-2--2-2-2-2-|-2--2-2-2-0-|
|-3--3--3-3-|-3--3-3-3-2-|-2--2-2-2-2-|-2--2-2-2-2-|-3--3-3-3-3-|-3--3-3-3-2-|
|-----------|----------3-|-3--3-3-3-3-|-3--3-3-3-3-|------------|----------2-|
|-----------|------------|------------|------------|------------|----------0-|


                            Am                        Dm11
  Q  Q   Q     Q  E E E E   Q  Q   E E   Q  Q   E E   Q  Q   E E   Q  Q   E E
|-0--0---0---|-0--0-0-0-0-|-0--0---0-0-|-0--0---0-0-|-3--3---3-3-|-3--3---3-3-|
|-0--0---0---|-0--0-0-0-0-|-1--1---1-1-|-1--1---1-1-|-1--1---1-1-|-1--1---1-1-|
|-0--0---0---|-0--0-0-0-0-|-2--2---2-2-|-2--2---2-2-|-2--2---2-2-|-2--2---2-2-|
|-2--2---2---|-2--2-2-2-2-|-2--2---2-2-|-2--2---2-2-|-0--0---0-0-|-0--0---0-0-|
|-2--2---2---|-2--2-2-2-2-|-0--0---0-0-|-0--0---0-0-|------------|------------|
|-0--0---0---|-0--0-0-0-0-|------------|------------|------------|------------|
|
| Q  E E E E   Q  E E E E   Q  E E E E   Q  E E E E   Q  E E E E   Q  E E E E
|-0--0-0-0-0-|-0--0-0-0-0-|-0--0-0-0-0-|-0--0-0-0-0-|-3--3-3-3-3-|-3--3-3-3-3-|
|-0--0-0-0-0-|-0--0-0-0-0-|-1--1-1-1-1-|-1--1-1-1-1-|-1--1-1-1-1-|-1--1-1-1-1-|
|-0--0-0-0-0-|-0--0-0-0-0-|-2--2-2-2-2-|-2--2-2-2-2-|-2--2-2-2-2-|-2--2-2-2-2-|
|-2--2-2-2-2-|-2--2-2-2-2-|-2--2-2-2-2-|-2--2-2-2-2-|-0--0-0-0-0-|-0--0-0-0-0-|
|-2--2-2-2-2-|-2--2-2-2-2-|-0--0-0-0-0-|-0--0-0-0-0-|------------|------------|
|-0--0-0-0-0-|-0--0-0-0-0-|------------|------------|------------|------------|


                           2nd Verse
  G7sus4                    C
  Q  Q   E E   Q  Q  E E     H      Q
|-1--1---1-1-|-1--1--1-3-||-------------|
|-3--3---3-3-|-3--3--3-1-||-^1----------|
|-0--0---0-0-|-0--0--0-0-||-^0------0---|
|-0--0---0-0-|-0--0--0-2-||-^2----------|
|------------|---------3-||-^3----------|
|-3--3---3-3-|-3--3--3---||-------------|
|
| Q  E E E E   Q  Q  Q       Q  E E E E
|-3--3-3-3-3-|-3--3--3---||--0--0-0-0-0-|
|-1--1-1-1-1-|-1--1--1---||--1--1-1-1-1-|
|-0--0-0-0-0-|-0--0--0---||--0--0-0-0-0-|
|-0--0-0-0-0-|-0--0--0---||--2--2-2-2-2-|
|------------|-----------||--3--3-3-3-3-|
|-3--3-3-3-3-|-3--3--3---||-------------|


               Fadd9
  H      Q      H.           +H.
|------------|-------------|-------------|
|-0----------|-^1----------|-(1)---------|
|--------0---|-^2----------|-(2)---------|
|------------|-^3----------|-(3)---------|
|------------|-------------|-------------|
|------------|-------------|-------------|
|
| Q  E E E E    Q   Q  E E    Q   Q  E E
|-0--0-0-0-0-|--3---3--3-3-|--3---3--3-3-|
|-1--1-1-1-1-|--1---1--1-1-|--1---1--1-1-|
|-0--0-0-0-0-|--2---2--2-2-|--2---2--2-2-|
|-2--2-2-2-2-|--3---3--3-3-|--3---3--3-3-|
|-3--3-3-3-3-|-------------|-------------|
|------------|-------------|-------------|


  C                        Fadd9                  Em
   H     Q     H     Q     H.           +H      E E   H     +E  E   H      Q
|------------|-----------|------------|-----------0-|-----------0-|------------|
|-^0---------|-----------|------------|-----------0-|-----------0-|--------0---|
|-^0-----0---|-2---------|------------|-------------|-0-----(0)---|-2----------|
|-^2---------|-------2---|-3----------|-(3)---------|-------------|------------|
|-^3---------|-----------|------------|-------------|-------------|------------|
|------------|-----------|------------|-------------|-------------|------------|
|
|  Q  Q  E E   Q  Q  E E   Q   Q  E E    Q   Q  E E   Q  Q   E  E   Q  E E E E
|--0--0--0-0-|-0--0--0-0-|-3---3--3-3-|--3---3--3-0-|-0--0---0--0-|-0--0-0-0-0-|
|--1--1--1-1-|-1--1--1-1-|-1---1--1-1-|--1---1--1-0-|-0--0---0--0-|-0--0-0-0-0-|
|--0--0--0-0-|-0--0--0-0-|-2---2--2-2-|--2---2--2-0-|-0--0---0--0-|-0--0-0-0-0-|
|--2--2--2-2-|-2--2--2-2-|-3---3--3-3-|--3---3--3-2-|-2--2---2--2-|-2--2-2-2-2-|
|--3--3--3-3-|-3--3--3-3-|------------|-----------2-|-2--2---2--2-|-2--2-2-2-2-|
|------------|-----------|------------|-----------0-|-0--0---0--0-|-0--0-0-0-0-|


  Am                              Dm11         G7            C
                        |--3--|
  Q.    E E E   Q.    E E E   E   H      E E   Q.    E Q      Q.    E E E
|-0-----0-0-0-|-0-----0---------|----------0-|-------3-----|---------------|
|-1-----1-1-1-|-1-----1---------|------------|-0-------0---|-^1-----1-1-1--|
|-2-----2-2-2-|-2-------0-------|-2------2---|-0-------0---|-^0-----0-0-0--|
|-2-----2-2-2-|-2-------0h2p==0-|-0----------|-------------|-^2-----2-2-2--|
|-0-----0-0-0-|-0---------------|------------|-------------|-^3-----3-3-3--|
|-------------|-----------------|------------|-------------|---------------|
|
| Q   Q   E E   Q   Q   E   E     Q  E E E E   Q   E E E E    Q   E E Q
|-0---0---0-0-|-0---0---0---0---|-3--3-3-3-3-|-1---1-1-1-1-|--0---0-0-0----|
|-1---1---1-1-|-1---1---1---1---|-1--1-1-1-1-|-0---0-0-0-0-|--1---1-1-1----|
|-2---2---2-2-|-2---2---2---2---|-2--2-2-2-2-|-0---0-0-0-0-|--0---0-0-0----|
|-2---2---2-2-|-2---2---2---2---|-0--0-0-0-0-|-0---0-0-0-0-|--2---2-2-2----|
|-0---0---0-0-|-0---0---0---0---|------------|-2---2-2-2-2-|--3---3-3-3----|
|-------------|-----------------|------------|-3---3-3-3-3-|---------------|


              Chorus
               Fmaj7
  Q  Q   Q     H      +E  E   Q  Q   E E
|-----------||-0------(0)-0-|-0--0---0-0-|
|-----------||-1------(1)-1-|-1--1---1-1-|
|-----------||-2------(2)-2-|-2--2---2-2-|
|----0---2--||-3------(3)-3-|-3--3---3-3-|
|-3---------||--------------|------------|
|-----------||--------------|------------|
|
| Q  E E Q     Q  E E  E  E   Q  E E E E
|-0--0-0-0--||-5--5-5--5--5-|-5--5-5-5-5-|
|-1--1-1-1--||-5--5-5--5--5-|-5--5-5-5-5-|
|-0--0-0-0--||-5--5-5--5--5-|-5--5-5-5-5-|
|-2--2-2-2--||-3--3-3--3--3-|-3--3-3-3-3-|
|-3--3-3-3--||--------------|------------|
|-----------||--------------|------------|


                             C
  Q  E E E E   E E Q   E E   Q.    E E E
|-0--0-0-0-0-|-0-0-0---0-0-|-------------|
|-1--1-1-1-1-|-1-1-1---1-1-|-0-----0-0-0-|
|-2--2-2-2-2-|-2-2-2---2-2-|-0-----0-0-0-|
|-3--3-3-3-3-|-3-3-3---3-3-|-2-----2-2-2-|
|------------|-------------|-3-----3-3-3-|
|------------|-------------|-------------|
|
| Q  Q   E E   Q   E E E E   Q   Q   E E
|-5--5---5-5-|-5---5-5-5-5-|-3---3---3-3-|
|-5--5---5-5-|-5---5-5-5-5-|-1---1---1-1-|
|-5--5---5-5-|-5---5-5-5-5-|-0---0---0-0-|
|-3--3---3-3-|-3---3-3-3-3-|-2---2---2-2-|
|------------|-------------|-3---3---3-3-|
|------------|-------------|-------------|


                                        Fmaj7
  E E Q   E E   E E E E E E   E E E E E E
|-------------|-------------|-------------|
|-0-0-0---0-0-|-0-0-0-0-0-0-|-0-0-0-0-0-0-|
|-0-0-0---0-0-|-0-0-0-0-0-0-|-0-0-0-0-0-0-|
|-2-2-2---2-2-|-2-2-2-2-2-2-|-2-2-2-2-2-2-|
|-3-3-3---3-3-|-3-3-3-3-3-3-|-3-3-3-3-3-3-|
|-------------|-------------|-------------|
|
| Q   E E E E   Q   Q   E E   Q   E E E E
|-3---3-3-3-3-|-3---3---3-3-|-3---3-3-3-5-|
|-1---1-1-1-1-|-1---1---1-1-|-1---1-1-1-5-|
|-0---0-0-0-0-|-0---0---0-0-|-0---0-0-0-5-|
|-2---2-2-2-2-|-2---2---2-2-|-2---2-2-2-3-|
|-3---3-3-3-3-|-3---3---3-3-|-3---3-3-3---|
|-------------|-------------|-------------|


                            Em
  Q  Q   E E   Q  E E E E   Q  E E E E
|-0--0---0-0-|-0--0-0-0-0-|-0--0-0-0-0-|
|-1--1---1-1-|-1--1-1-1-1-|-0--0-0-0-0-|
|-2--2---2-2-|-2--2-2-2-2-|-0--0-0-0-0-|
|-3--3---3-3-|-3--3-3-3-3-|-2--2-2-2-2-|
|------------|------------|-2--2-2-2-2-|
|------------|------------|-0--0-0-0-0-|
|
| Q  E E E E   Q  E E E E   Q  E E E E
|-5--5-5-5-5-|-5--5-5-5-5-|-0--0-0-0-0-|
|-5--5-5-5-5-|-5--5-5-5-5-|-0--0-0-0-0-|
|-5--5-5-5-5-|-5--5-5-5-5-|-0--0-0-0-0-|
|-3--3-3-3-3-|-3--3-3-3-3-|-2--2-2-2-2-|
|------------|------------|-2--2-2-2-2-|
|------------|------------|-0--0-0-0-0-|


               Dm                        G7                       G
  Q  Q   Q     Q  E E E E   Q  E E E E   Q  E E Q     Q  E E Q     H.
|-0--0---0---|-1--1-1-1-1-|-1--1-1-1-1-|-3--3-3-3---|-3--3-3-3--|--3-----|
|-0--0---0---|-3--3-3-3-3-|-3--3-3-3-3-|-3--3-3-3---|-3--3-3-3--|--3-----|
|-0--0---0---|-2--2-2-2-2-|-2--2-2-2-2-|-0--0-0-0---|-0--0-0-0--|--0-----|
|-2--2---2---|-0--0-0-0-0-|-0--0-0-0-0-|-0--0-0-0---|-0--0-0-0--|--0-----|
|-2--2---2---|------------|------------|-2--2-2-2---|-2--2-2-2--|--2-----|
|-0--0---0---|------------|------------|-3--3-3-3---|-3--3-3-3--|--3-----|
|
| Q  E E E E   Q  Q   E E   Q  Q   E E   Q  Q   E E   Q  E E Q     H.
|-0--0-0-0-0-|-1--1---1-1-|-1--1---1-1-|-1--1---1-1-|-1--1-1-1--|-^3-----|
|-0--0-0-0-0-|-3--3---3-3-|-3--3---3-3-|-0--0---0-0-|-0--0-0-0--|-^0-----|
|-0--0-0-0-0-|-2--2---2-2-|-2--2---2-2-|-0--0---0-0-|-0--0-0-0--|-^0-----|
|-2--2-2-2-2-|-0--0---0-0-|-0--0---0-0-|-0--0---0-0-|-0--0-0-0--|-^0-----|
|-2--2-2-2-2-|------------|------------|-2--2---2-2-|-2--2-2-2--|-^2-----|
|-0--0-0-0-0-|------------|------------|-3--3---3-3-|-3--3-3-3--|-^3-----|


             3rd Verse
              C
  +H.          Q  +Q.     E   H      Q
|-(3)------||-^3--(3)-----3-|-3------0---|
|-(3)------||-^1--(1)-----1-|-1------1---|
|-(0)------||-^0--(0)-----0-|-0------0---|
|-(0)------||-^2--(2)-----2-|-2------2---|
|-(2)------||-^3--(3)-----3-|-3------3---|
|-(3)------||---------------|------------|
|
| +H.          Q   E  E E E   Q  E E E E
|-(3)------||--0---0--0-0-0-|-0--0-0-0-0-|
|-(0)------||--1---1--1-1-1-|-1--1-1-1-1-|
|-(0)------||--0---0--0-0-0-|-0--0-0-0-0-|
|-(0)------||--2---2--2-2-2-|-2--2-2-2-2-|
|-(2)------||--3---3--3-3-3-|-3--3-3-3-3-|
|-(3)------||---------------|------------|


  Fadd9                     C
  H      E E   Q  E E E E   Q  E E E E
|-1------1-1-|-1--1-1-1-0-|-3--3-3-3-3-|
|-1------1-1-|-1--1-1-1-1-|-3--3-3-3-3-|
|-2------2-2-|-2--2-2-2---|-0--0-0-0-0-|
|-3------3-3-|-3--3-3-3---|-2--2-2-2-2-|
|------------|------------|-3--3-3-3-3-|
|------------|------------|------------|
|
| Q  E E E E   Q  E E E E   Q  E E E E
|-3--3-3-3-3-|-3--3-3-3-3-|-0--0-0-0-0-|
|-1--1-1-1-1-|-1--1-1-1-1-|-1--1-1-1-1-|
|-2--2-2-2-2-|-2--2-2-2-2-|-0--0-0-0-0-|
|-3--3-3-3-3-|-3--3-3-3-3-|-2--2-2-2-2-|
|------------|------------|-3--3-3-3-3-|
|------------|------------|------------|


               Fadd9                Em                           Am
  Q  E E E E   Q  Q  E E   Q  E E E E   Q  Q  E E   Q  Q   E E   Q  Q  E E
|-3--3-3-3-3-|-1--1--1-1-|-3--3-3-3-0-|-0--0--0-0-|-0--0---0-0-|-0--0--0-0-|
|-1--1-1-1-1-|-1--1--1-1-|-1--1-1-1-0-|-0--0--0-0-|-0--0---0-0-|-1--1--1-1-|
|-0--0-0-0-0-|-2--2--2-2-|-2--2-2-2---|-0--0--0-0-|-0--0---0-0-|-2--2--2-2-|
|-2--2-2-2-2-|-3--3--3-3-|-3--3-3-3---|-2--2--2-2-|-2--2---2-2-|-2--2--2-2-|
|-3--3-3-3-3-|-----------|------------|-2--2--2-2-|-2--2---2-2-|-0--0--0-0-|
|------------|-----------|------------|-0--0--0-0-|-0--0---0-0-|-----------|
|
| Q  E E E E   Q  Q  E E   Q  E E E E   Q  Q  E E   Q  E E E E   Q  Q  E E
|-0--0-0-0-0-|-3--3--3-3-|-3--3-3-3-0-|-0--0--0-0-|-0--0-0-0-0-|-5--5--5-5-|
|-1--1-1-1-1-|-1--1--1-1-|-1--1-1-1-0-|-0--0--0-0-|-0--0-0-0-0-|-5--5--5-5-|
|-0--0-0-0-0-|-2--2--2-2-|-2--2-2-2-0-|-0--0--0-0-|-0--0-0-0-0-|-5--5--5-5-|
|-2--2-2-2-2-|-3--3--3-3-|-3--3-3-3-2-|-2--2--2-2-|-2--2-2-2-2-|-7--7--7-7-|
|-3--3-3-3-3-|-----------|----------2-|-2--2--2-2-|-2--2-2-2-2-|-0--0--0-0-|
|------------|-----------|----------0-|-0--0--0-0-|-0--0-0-0-0-|-----------|


               Dm11                 G
  Q  E E E E   Q  Q  E E   Q  E E Q
|-0--0-0-0-0-|-3--3--3-3-|-3--3-3-3---|
|-1--1-1-1-1-|-1--1--1-1-|-1--1-1-1---|
|-2--2-2-2-2-|-2--2--2-2-|-2--2-2-2---|
|-2--2-2-2-2-|-0--0--0-0-|-0--0-0-0---|
|-0--0-0-0-0-|-----------|------------|
|------------|-----------|------------|
|
| Q  E E E E   Q  Q  E E   Q  Q   E E
|-5--5-5-5-5-|-3--3--3-3-|-3--3---3-3-|
|-5--5-5-5-5-|-1--1--1-1-|-1--1---1-0-|
|-5--5-5-5-5-|-2--2--2-2-|-2--2---2-0-|
|-7--7-7-7-7-|-0--0--0-0-|-0--0---0-0-|
|-0--0-0-0-0-|-----------|----------2-|
|------------|-----------|----------3-|
|
| Gtr III (Clean El. Gtr. w/ Leslie effect)
| W            W           W
|------------|-----------|------------|
|------------|-----------|------------|
|------------|-----------|------------|
|------------|-----------|------------|
|------------|-----------|------------|
|------------|-----------|------------|


                            Guitar Solo
                             Cmaj7
  Q  E E E E   Q  E E E E     Q     E E  E E
|-3--3-3-3-3-|-3--3-3-3-3-||--0-----0-0--0-0-|
|-1--1-1-1-0-|-0--0-0-0-0-||--0-----0-0--0-0-|
|-0--0-0-0-0-|-0--0-0-0-0-||--0-----0-0--0-0-|
|-0--0-0-0-0-|-0--0-0-0-0-||--2-----2-2--2-2-|
|------------|------------||--3-----3-3--3-3-|
|-3--3-3-3-3-|-3--3-3-3-3-||-----------------|
|
| Q  Q   E E   Q  E E E E     Q     E E  E E
|-3--3---3-3-|-3--3-3-3-3-||--0-----0-0--0-0-|
|-0--0---0-0-|-0--0-0-0-0-||--0-----0-0--0-0-|
|-0--0---0-0-|-0--0-0-0-0-||--0-----0-0--0-0-|
|-0--0---0-0-|-0--0-0-0-0-||--2-----2-2--2-2-|
|-2--2---2-2-|-2--2-2-2-2-||--3-----3-3--3-3-|
|-3--3---3-3-|-3--3-3-3-3-||-----------------|
|
| W            W              H          Q
|------------|------------||-----------------|
|------------|------------||-17---------13---|
|------------|------------||-16b17------12---|
|------------|------------||-----------------|
|------------|------------||-----------------|
|------------|------------||-----------------|


                     Fadd9                         Cmaj7
  Gtrs I, II
   E    E E E  E E    Q      E E E E     Q    Q  E E
|--0----0-0-0--0-0-|--3------3-3-3-3-|---3----3--3-0-|
|--0----0-0-0--0-0-|--1------1-1-1-1-|---1----1--1-0-|
|--0----0-0-0--0-0-|--2------2-2-2-2-|---2----2--2-0-|
|--2----2-2-2--2-2-|--3------3-3-3-3-|---3----3--3-2-|
|--3----3-3-3--3-3-|-----------------|-------------3-|
|------------------|-----------------|---------------|
|
| Gtr III
|  H           Q      H.                +H       Q
|------------------|-----------------|---------------|
|-15----------12---|-13--------------|-(13)----------|
|-14b16-------12---|-12b14===========|=(12)r---------|
|------------------|-----------------|---------------|
|------------------|-----------------|---------------|
|------------------|-----------------|---------------|


                                        Fadd9
   Q     E E  E E    Q     Q      E E    Q      Q  E E
|--0-----0-0--0-0-|--0-----0------0-0-|--3------3--3-3-|
|--0-----0-0--0-0-|--0-----0------0-0-|--1------1--1-1-|
|--0-----0-0--0-0-|--0-----0------0-0-|--2------2--2-2-|
|--2-----2-2--2-2-|--2-----2------2-2-|--3------3--3-3-|
|--3-----3-3--3-3-|--3-----3------3-3-|----------------|
|-----------------|-------------------|----------------|
|
|  H          Q      Q.       +E  Q      H.
|-----------------|-------------------|----------------|
|-15---------12---|-13------------8---|-10-------------|
|-14b16------12---|-12b14r===(12)-9---|--9b10==========|
|-----------------|-------------------|----------------|
|-----------------|-------------------|----------------|
|-----------------|-------------------|----------------|


              Em
    Q    Q  E E   Q  Q  E E    Q  E E  E E
|---3----3--3-0-|-0--0--0-0-|--0--0-0--0-0-|
|---1----1--1-0-|-0--0--0-0-|--0--0-0--0-0-|
|---2----2--2-0-|-0--0--0-0-|--0--0-0--0-0-|
|---3----3--3-2-|-2--2--2-2-|--2--2-2--2-2-|
|-------------2-|-2--2--2-2-|--2--2-2--2-2-|
|-------------0-|-0--0--0-0-|--0--0-0--0-0-|
|
|  +H.            H     Q      H       Q
|---------------|-----------|--------------|
|-(10)----------|-8-----8---|-10------12---|
|--(9)r---------|-7-----7---|--7------12---|
|---------------|-----------|--------------|
|---------------|-----------|--------------|
|---------------|-----------|--------------|


  Am                              Dm11
   Q   Q   E E    Q   E  E  E E   Q  E E E E
|--0---0---0-0-|--0---0--0--0-0-|-3--3-3-3-3-|
|--1---1---1-1-|--1---1--1--1-1-|-1--1-1-1-1-|
|--2---2---2-2-|--2---2--2--2-2-|-2--2-2-2-2-|
|--2---2---2-2-|--2---2--2--2-2-|-0--0-0-0-0-|
|--0---0---0-0-|--0---0--0--0-0-|------------|
|--------------|----------------|------------|
|
|  Q   Q   Q      Q   Q     Q     H      Q
|-12--10-------|----------------|--------5---|
|-13--12--12---|-10-------------|-6----------|
|----------9---|-----12\----9---|-5------5---|
|--------------|-10--10\---10---|------------|
|--------------|----------------|------------|
|--------------|----------------|------------|


                Gsus4          G
  Gtr I
  Q   E E E E    Q   E E E E     Q   E E E E
|-3---3-3-3-3-|--3---3-3-3-3-|---3---3-3-3-3-||
|-1---1-1-1-1-|--1---1-1-1-1-|---0---0-0-0-0-||
|-2---2-2-2-2-|--0---0-0-0-0-|---0---0-0-0-0-||
|-0---0-0-0-0-|--0---0-0-0-0-|---0---0-0-0-0-||
|-------------|--------------|---2---2-2-2-2-||
|-------------|--3---3-3-3-3-|---3---3-3-3-3-||
|
| Gtr II
| Q   E E E E    Q   E E E E     Q   E E E E
|-3---3-3-3-3-|--3---3-3-3-3-|---3---3-3-3-3-||
|-1---1-1-1-1-|--1---1-1-1-1-|---0---0-0-0-0-||
|-2---2-2-2-2-|--0---0-0-0-0-|---0---0-0-0-0-||
|-0---0-0-0-0-|--0---0-0-0-0-|---0---0-0-0-0-||
|-------------|--------------|---2---2-2-2-2-||
|-------------|--3---3-3-3-3-|---3---3-3-3-3-||
|
| Gtr III
| Q   Q   Q      H.             +H.
|-5---7---8---|--8-----------|--(8)----------||
|-------------|--------------|---------------||
|-------------|-10-----------|-(10)----------||
|-7-----------|--------------|---------------||
|-------------|-10-----------|-(10)----------||
|-------------|--------------|---------------||
  H.


 4th Verse
  C                         Fadd9
  Q  Q   E E   Q  Q   E E   Q  Q   E E
|-0--0---0-0-|-0--0---0-0-|-0--0---3-0-|
|-1--1---1-1-|-1--1---1-1-|-1--1---1-1-|
|-0--0---0-0-|-0--0---0-0-|-2--2---2-2-|
|-2--2---2-2-|-2--2---2-2-|-3--3---3-3-|
|-3--3---3-3-|-3--3---3-3-|------------|
|------------|------------|------------|
|
| Q  E E Q     Q  E E Q     Q  E E E E
|-0--0-0-0---|-0--0-0-0---|-3--3-3-3-3-|
|-1--1-1-1---|-1--1-1-1---|-1--1-1-1-1-|
|-0--0-0-0---|-0--0-0-0---|-2--2-2-2-2-|
|-2--2-2-2---|-2--2-2-2---|-3--3-3-3-3-|
|-3--3-3-3---|-3--3-3-3---|------------|
|------------|------------|------------|
|
| W            W            W
|------------|------------|------------|
|------------|------------|------------|
|------------|------------|------------|
|------------|------------|------------|
|------------|------------|------------|
|------------|------------|------------|


              C                        Fadd9                 Em
  Q  Q  E E   Q  Q   E E   Q  Q  E E   Q  +Q.    E   H     E E   Q  Q  E E
|-3--0--3---|-0--0---0-0-|-0--0--0-0-|-1--(1)----1-|-1-----3-0-|-0--0--0-0-|
|-1--1--1-0-|-1--1---1-1-|-1--1--1-1-|-1--(1)----1-|-1-----1-1-|-0--0--0-0-|
|-2--2--2-0-|-0--0---0-0-|-0--0--0-0-|-2--(2)----2-|-2-----2-2-|-0--0--0-0-|
|-3--3--3---|-2--2---2-2-|-2--2--2-2-|-3--(3)----3-|-3-----3-3-|-2--2--2-2-|
|-----------|-3--3---3-3-|-3--3--3-3-|-------------|-----------|-2--2--2-2-|
|-----------|------------|-----------|-------------|-----------|-0--0--0-0-|
|
| Q  Q  E E   Q  E E E E   Q  Q  E E   Q   Q   E E   Q  Q  E E   Q  Q  E E
|-3--3--3-3-|-0--0-0-0-0-|-0--0--0-0-|-3---3---3-3-|-3--3--3-0-|-0--0--0-0-|
|-1--1--1-1-|-1--1-1-1-1-|-1--1--1-1-|-1---1---1-1-|-1--1--1-0-|-0--0--0-0-|
|-2--2--2-2-|-0--0-0-0-0-|-0--0--0-0-|-2---2---2-2-|-2--2--2-0-|-0--0--0-0-|
|-3--3--3-3-|-2--2-2-2-2-|-2--2--2-2-|-3---3---3-3-|-3--3--3-2-|-2--2--2-2-|
|-----------|-3--3-3-3-3-|-3--3--3-3-|-------------|---------2-|-2--2--2-2-|
|-----------|------------|-----------|-------------|---------0-|-0--0--0-0-|


               Am                        Dm11                      G
  Q  E E E E   Q  E E E E   Q  E E E E   Q  E E E E   Q  E E E E   Q  E E E E
|-0--0-0-0-0-|-0--0-0-0-0-|-0--0-0-0-1-|-1--1-1-1-1-|-1--1-1-1-1-|-3--3-3-3---|
|-0--0-0-0-0-|-1--1-1-1-1-|-1--1-1-1-3-|-3--3-3-3-3-|-3--3-3-3-3-|-1--1-1-1---|
|-0--0-0-0-0-|-2--2-2-2-2-|-2--2-2-2-2-|-2--2-2-2-2-|-2--2-2-2-2-|-0--0-0-0-0-|
|-2--2-2-2-2-|-2--2-2-2-2-|-2--2-2-2---|-0--0-0-0-0-|-0--0-0-0-0-|-0--0-0-0---|
|-2--2-2-2-2-|-0--0-0-0-0-|-0--0-0-0---|------------|------------|------------|
|-0--0-0-0-0-|------------|------------|------------|------------|-3--3-3-3---|
|
| Q  E E E E   Q  Q   Q     Q  E E E E   Q  E E E E   Q  E E E E   Q  E E E E
|-0--0-0-0-0-|-5--5---5---|-5--5-5-5-5-|-3--3-3-3-3-|-3--3-3-3-3-|-3--3-3-3-3-|
|-0--0-0-0-0-|-5--5---5---|-5--5-5-5-5-|-1--1-1-1-1-|-1--1-1-1-1-|-0--0-0-0-0-|
|-0--0-0-0-0-|-5--5---5---|-5--5-5-5-5-|-2--2-2-2-2-|-2--2-2-2-2-|-0--0-0-0-0-|
|-2--2-2-2-2-|-7--7---7---|-7--7-7-7-7-|-0--0-0-0-0-|-0--0-0-0-0-|-0--0-0-0-0-|
|-2--2-2-2-2-|-0--0---0---|-0--0-0-0-0-|------------|------------|-2--2-2-2-2-|
|-0--0-0-0-0-|------------|------------|------------|------------|-3--3-3-3-3-|


               Outro
                Fmaj7
  Q  E E E E    H     E E   Q  Q   E E
|-3--3-3-3-0-||-0-----0-0-|-0--0---0-0-|
|-0--0-0-0-0-||-1-----1-1-|-1--1---1-1-|
|-0--0-0-0---||-2-----2-2-|-2--2---2-2-|
|-0--0-0-0---||-3-----3-3-|-3--3---3-3-|
|------------||-----------|------------|
|-3--3-3-3---||-----------|------------|
|
| Q  E E E E    Q  Q  E E   Q  E E Q
|-3--3-3-3-3-||-5--5--5-5-|-5--5-5-5---|
|-0--0-0-0-0-||-5--5--5-5-|-5--5-5-5---|
|-0--0-0-0-0-||-5--5--5-5-|-5--5-5-5---|
|-0--0-0-0-0-||-3--3--3-3-|-3--3-3-3---|
|-2--2-2-2-2-||-----------|------------|
|-3--3-3-3-3-||-----------|------------|
|
| Gtr III
| W             W           W
|------------||-----------|------------|
|------------||-----------|------------|
|------------||-----------|------------|
|------------||-----------|------------|
|------------||-----------|------------|
|------------||-----------|------------|


                            C
  Q  E E E E   Q   Q  E E   Q  E E  E  E
|-0--0-0-0-0-|-0---0--0-0-|-0--0-0--0--0-|
|-1--1-1-1-1-|-1---1--1-1-|-0--0-0--0--0-|
|-2--2-2-2-2-|-2---2--2-2-|-0--0-0--0--0-|
|-3--3-3-3-3-|-3---3--3-3-|-2--2-2--2--2-|
|------------|------------|-3--3-3--3--3-|
|------------|------------|--------------|
|
| Q  E E E E   E E Q  E E   Q  E E  E  E
|-5--5-5-5-5-|-5-5-5--5-5-|-0--0-0--0--0-|
|-5--5-5-5-5-|-5-5-5--5-5-|-1--1-1--1--1-|
|-5--5-5-5-5-|-5-5-5--5-5-|-0--0-0--0--0-|
|-3--3-3-3-3-|-3-3-3--3-3-|-2--2-2--2--2-|
|------------|------------|-3--3-3--3--3-|
|------------|------------|--------------|
|
| W            W            Q  Q    E  E
|------------|------------|--------10-10-|
|------------|------------|--------12-12-|
|------------|------------|--------------|
|------------|------------|--------------|
|------------|------------|--------------|
|------------|------------|--------------|


                                                    Fmaj7
   Q    E E  E  E   E E  Q    E  E    E E Q   Q     Q   E E E E
|--0----0-0--0--0-|-0-0--0----0--0-|--0-0-0---0---|-0---0-0-0-0--|
|--0----0-0--0--0-|-0-0--0----0--0-|--0-0-0---0---|-1---1-1-1-1--|
|--0----0-0--0--0-|-0-0--0----0--0-|--0-0-0---0---|-2---2-2-2-2--|
|--2----2-2--2--2-|-2-2--2----2--2-|--2-2-2---2---|-3---3-3-3-3--|
|--3----3-3--3--3-|-3-3--3----3--3-|--3-3-3---3---|--------------|
|-----------------|----------------|--------------|--------------|
|
|  Q    E E  E  E   E E  E E  E  E    E E E E E E   Q   Q   E E
|--0----0-0--0--0-|-0-0--0-0--0--0-|--0-0-0-0-0-0-|-5---5---5-5--|
|--1----1-1--1--1-|-1-1--1-1--1--1-|--1-1-1-1-1-1-|-5---5---5-5--|
|--0----0-0--0--0-|-0-0--0-0--0--0-|--0-0-0-0-0-0-|-5---5---5-5--|
|--2----2-2--2--2-|-2-2--2-2--2--2-|--2-2-2-2-2-2-|-3---3---3-3--|
|--3----3-3--3--3-|-3-3--3-3--3--3-|--3-3-3-3-3-3-|--------------|
|-----------------|----------------|--------------|--------------|
|
|  E Q.     +E  E   E Q.     +Q       E E Q   Q     H.
|-10S7------(7)-7-|-7S3------(3)---|--------------|--------------|
|-12S8------(8)-8-|-8S5------(5)---|-/8S5-----6---|--------------|
|-----------------|----------------|-/9S7-5---7---|--------------|
|-----------------|----------------|--------------|-7------------|
|-----------------|----------------|--------------|--------------|
|-----------------|----------------|--------------|--------------|


                                                  Cmaj7
  E E  E  E E E   E E  E  E E E   E E  E  E E E    H.        +H.
|-0-0--0--0-0-0-|-0-0--0--0-0-0-|-0-0--0--0-0-0-|--0-------|-(0)----*|
|-1-1--1--1-1-1-|-1-1--1--1-1-1-|-1-1--1--1-1-1-|--0-------|-(0)----*|
|-2-2--2--2-2-2-|-2-2--2--2-2-2-|-2-2--2--2-2-2-|--0-------|-(0)----*|
|-3-3--3--3-3-3-|-3-3--3--3-3-3-|-3-3--3--3-3-3-|--2-------|-(2)----*|
|---------------|---------------|---------------|--3-------|-(3)----*|
|---------------|---------------|---------------|----------|--------*|
|
| E E +E  E E E   E E +E  E E E   E E +E  E Q      H.        +H.
|-5-5-(5)-5-5-5-|-5-5-(5)-5-5-5-|-5-5-(5)-5-5---|-^3-------|-(3)----*|
|-5-5-(5)-5-5-5-|-5-5-(5)-5-5-5-|-5-5-(5)-5-5---|-^0-------|-(0)----*|
|-5-5-(5)-5-5-5-|-5-5-(5)-5-5-5-|-5-5-(5)-5-5---|-^0-------|-(0)----*|
|-3-3-(3)-3-3-3-|-3-3-(3)-3-3-3-|-3-3-(3)-3-3---|-^2-------|-(2)----*|
|---------------|---------------|---------------|-^3-------|-(3)----*|
|---------------|---------------|---------------|----------|--------*|


Duration Legend
---------------
W - whole; H - half; Q - quarter; E - 8th; S - 16th; T - 32nd; X - 64th; a - acciaccatura
+ - note tied to previous; . - note dotted; .. - note double dotted
Uncapitalized letters represent notes that are staccato (1/2 duration)
Irregular groupings are notated above the duration line
Duration letters will always appear directly above the note/fret number it represents the
duration for.  Duration letters with no fret number below them represent rests.  Multi-
bar rests are notated in the form Wxn, where n is the number of bars to rest for.  Low
melody durations appear below the staff

Tablature Legend
----------------
 h   - hammer-on
 p   - pull-off
 b   - bend
 pb  - pre-bend
 r   - bend release (if no number after the r, then release immediately)
 /\  - slide into or out of (from/to "nowhere")
 s   - legato slide
 S   - shift slide
  - natural harmonic
[n]  - artificial harmonic
n(n) - tapped harmonic
 ~   - vibrato
 tr  - trill
 T   - tap
 TP  - trem. picking
 PM  - palm muting
\n/  - tremolo bar dip; n = amount to dip
 \n  - tremolo bar down
 n/  - tremolo bar up
/n\  - tremolo bar inverted dip
 =   - hold bend; also acts as connecting device for hammers/pulls
 <>  - volume swell (louder/softer)
 x   - on rhythm slash represents muted slash
 o   - on rhythm slash represents single note slash

Misc Legend
-----------
 |  - bar
||  - double bar
||o - repeat start
o|| - repeat end
*|  - double bar (ending)
 :  - bar (freetime)
 $  - Segno
 &  - Coda
Tempo markers -  = BPM(8/16=s8/s16), where s8 = swing 8ths, s16 = swing 16ths




Most of us are sad
No one lets it show
I've been shadows of myself
How was I to know?

Tell me scarlet sun
What will time allow?
We have brought our children
Here who can save them now?

Oh, weeping woman try to smile
Like the coming dawn
Most of us are sad it's true
Still we must go on

Love was here today
Oh the sun was bright
I will sing you faraway
Love is here tonight

Most of us are sad
No one lets it show
I've been shadows of myself
How was I to know?

            
            
Suggest correction
Creating personal tab
Creating personal tab
You can edit any tab online and save it as your Personal.

You can edit, replace or remove any tab part or add personal notes – all changes will be seen only by you.

Personal tabs can be accessed anytime from any device, even offline.
Learn more »
Give kudos to tab author, rate the tab!
1 2 3 4 5
comments
print report bad tab
guest
You may want to rate the tab now too:
select rating
Wanna post a correction for this tab? Suggest correction