Oops, an error
Loading. Please wait.

No More Cloudy Days bass

version 1
version 1

Whole song

Interactive

by Eagles
166 views 1 this week
1 commentread comment
1 2 3 4 5
2 more votes to show rating
add to favorites
×
Save as Personal and add changes to this tab that will be seen only by you. Learn more ›
×
You can save this tab as Personal to edit and correct it or add notes. All changes will be seen only by you. Learn more »
launch autoscroll
font size
0
reset
guitar tuner
edit
Autoscroll
slow
fast
+/-
esc
set tempo
stop
Author
Difficulty
Eagles
No more cloudy days
Album:  Long Road Out of Eden (2007)

Intro: 00:01   Gmaj /   Gmaj Dsus4/G  Em/G  Gsus2  x2
G|------------|------------|------------|------------|-
D|------------|------------|---------7g-|------------|-
A|---------5g-|---------7g-|-5r-5-5-----|-5r-5-5--7g-|- x2
E|-3r-3-3-----|-3r-3-3-----|------------|------------|-      

Verse1: 00:21  
G|------------|------------|------------|------------|-
D|------------|------------|---------7g-|------------|-
A|---------5g-|---------7g-|-5r-5-5-----|-5r-5-5--7g-|- x2
E|-3r-3-3-----|-3r-3-3-----|------------|------------|-      
Gmaj                      Gmaj Dsus4/G Em/G                   Gsus2
Sitting by a foggy window              Staring at the pouring rain

Gmaj                               Gmaj Dsus4/G Em/G                Gsus2

Falling down like lonely teardrops              Memories of love in vain
G|------------|---------4g-|------------||------------|-
D|---------4g-|-2r-2-2-----|------------||---------7g-|-
A|-2r-2-2-----|------------|---------7g-||-5r-5-5-----|- 
E|------------|------------|-5r-5-5-----||------------|-      
      Bm     Em     Am                 Dsus4  D Dsus2  D
These cloudy days,  make you wanna cry
G|------------|---------4g-|------------||------------|-
D|---------4g-|-2r-2-2-----|---------7g-||------------|-
A|-2r-2-2-----|------------|-5r-5-5-----||-5r-5-5--7g-|- 
E|------------|------------|------------||------------|-      
Bm                         Em                    Dsus4           D
It breaks your heart when someone leaves and you don’t know why

Verse2: 00:40 
G|------------|------------|------------|------------|-
D|------------|------------|---------7g-|------------|-
A|---------5g-|---------7g-|-5r-5-5-----|-5r-5-5--7g-|- x2
E|-3r-3-3-----|-3r-3-3-----|------------|------------|-       
Gmaj                             Gmaj Dsus4/G  Em/G                 Gsus2
I can see that you’ve been hurting,         baby I’ve been lonely too

Gmaj                             Gmaj Dsus4/G Em/G                  Gsus2

I’ve been out here lost and searching,      looking for a girl like you
G|------------|---------4g-|------------||------------|-
D|---------4g-|-2r-2-2-----|------------||---------7g-|-
A|-2r-2-2-----|------------|---------7g-||-5r-5-5-----|- 
E|------------|------------|-5r-5-5-----||------------|-      
    Bm  Em          Am               D
Now I   believe the sun is gonna shine
G|------------|---------4g-|------------||------------|-
D|---------4g-|-2r-2-2-----|---------7g-||------------|-
A|-2r-2-2-----|------------|-5r-5-5-----||-5r-5-5--7g-|- 
E|------------|------------|------------||------------|-     
          Bm             Em        Dsus4             D
Don’t you be afraid to love again, put your hand in mine…

Chorus1: 01:29  
G|------------|------------|------------|------------|-
D|---------5g-|------------|------------|------------|-
A|-3r-3-3-----|-3r--3/7/3r-|---------5g-|------------|- x2
E|------------|------------|-3r-3-3-----|-3r--3/5/3--|-      
     C/G                           Gmaj
Baby, I would never make you cry,   I would never make you blue

C/G                           Gmaj
I would never let you down,   I would never be untrue

G|---------4g-|------------|------------|------------|-
D|-2r-2-2-----|---------4g-|------------|------------|-
A|------------|-2r-2-2-----|------------|---------7g-|- 
E|------------|------------|-3r-3-3-/---|-5r-5-5-----|-     
Em                   B5              Gmaj             A
I know a place where we can go where true love always stays
G|------------|------------|------------|------------|-
D|---------7g-|------------|---------7g-|------------|-
A|-5r-5-5-----|-5r-5-5--7g-|-5r-5-5-----|-5r-5-5--7g-|- 
E|------------|------------|------------|------------|-     
Dsus4                  D       Dsus4          D
There’s no more stormy nights, no more cloudy days

Verse3: 01:28  
G|------------|------------|------------|------------|-
D|------------|------------|---------7g-|------------|-
A|---------5g-|---------7g-|-5r-5-5-----|-5r-5-5--7g-|- x2
E|-3r-3-3-----|-3r-3-3-----|------------|------------|-      
Gmaj                       Gmaj Dsus4/G   Em/G                 Gsus2
I believe in second chances               I believe in angels, too

Gmaj                     Gmaj  Dsus4/G   Em/G               Gsus2
I believe in new romances                Baby, I believe in you

G|------------|---------4g-|------------||------------|-
D|---------4g-|-2r-2-2-----|------------||---------7g-|-
A|-2r-2-2-----|------------|---------7g-||-5r-5-5-----|- 
E|------------|------------|-5r-5-5-----||------------|-      
      Bm     Em      Am               Dsus4  D Dsus2 D
These cloudy days are coming to an end
G|------------|---------4g-|------------||------------|-
D|---------4g-|-2r-2-2-----|---------7g-||------------|-
A|-2r-2-2-----|------------|-5r-5-5-----||-5r-5-5--7g-|- 
E|------------|------------|------------||------------|-     
    Bm                 Em          Dsus4          D
And you don’t have to be afraid to fall in love again

Chorus2: 02:06 
G|------------|------------|------------|------------|-
D|---------5g-|------------|------------|------------|-
A|-3r-3-3-----|-3r--3/7/3r-|---------5g-|------------|- x2
E|------------|------------|-3r-3-3-----|-3r--3/5/3--|-       
      C/G                         Gmaj
Baby, I would never make you cry, I would never make you blue
C/G                       Gmaj
I would never turn away, I would never be untrue
G|---------4g-|------------|------------|------------|-
D|-2r-2-2-----|---------4g-|------------|------------|-
A|------------|-2r-2-2-----|------------|---------7g-|- 
E|------------|------------|-3r-3-3-/---|-5r-5-5-----|-     
Em                   B5              Gmaj             A
I know a place where we can go where true love always stays
G|------------|------------|------------|------------|-
D|---------7g-|------------|---------7g-|------------|-
A|-5r-5-5-----|-5r-5-5--7g-|-5r-5-5-----|-5r-5-5--7g-|- 
E|------------|------------|------------|------------|-     
        Dsus4          D       Dsus4          D
There’s no more stormy nights, no more cloudy days


Instrumental / outro: 02:35  (repeat till fade out)
G|------------|------------|------------|------------|-
D|------------|------------|---------7g-|------------|-
A|---------5g-|---------7g-|-5r-5-5-----|-5r-5-5--7g-|- XX 
E|-3r-3-3-----|-3r-3-3-----|------------|------------|-       
Gmaj /  Gmaj Dsus4/G  Em/G   Gsus2

Gmaj /  Gmaj Dsus4/G  Em/G   Gsus2   Gmaj

 
End: 04:21

            
            
Suggest correction
Creating personal tab
Creating personal tab
You can edit any tab online and save it as your Personal.

You can edit, replace or remove any tab part or add personal notes – all changes will be seen only by you.

Personal tabs can be accessed anytime from any device, even offline.
Learn more »
Give kudos to tab author, rate the tab!
1 2 3 4 5
comments
print report bad tab
1 comment total.
0 reply
Bruno Frenchy 4,808 May 10, 2016 09:48 AM

Hi,
This is my version for that lovely song from the Eagles and I think it is pretty accurate and playable as it is... I only have one doubt regarding the transposition of some chords into a bass line...
Dsus4 - Dsus2 for example may be played using the root note D major on the Bass but to have a better rendering I added the 5th... Not 100% sure it maybe the only thing to do knowing that in those chords you have for Dsus4 : D G A and for Dsus2 : D E A (piano chords).
So if you have some tips about that do not hesitate to share your thoughts with me... Anyhow, I may come back to that tab to improve it accordingly... Enjoy, Bruno Frenchy

guest
You may want to rate the tab now too:
select rating
Wanna post a correction for this tab? Suggest correction