Oops, an error
Loading. Please wait.
We have an official Take It Easy tab made by UG professional guitarists. Check out the tab »
×

Take It Easy solo tab

version 3
version 3

Solo

  • Tab for the guitar solo in Take It Easy by the Eag... Show more

Whole song

Interactive

by Eagles
352 views 12 this week
no commentswrite comment
1 2 3 4 5
3 more votes to show rating
add to favorites
×
Save as Personal and add changes to this tab that will be seen only by you. Learn more ›
×
You can save this tab as Personal to edit and correct it or add notes. All changes will be seen only by you. Learn more »
launch autoscroll
font size
0
reset
how to read this tab
guitar tuner
backing track
0:00
0:00
edit
Autoscroll
slow
fast
+/-
esc
set tempo
stop
About this tab version
Tab for the guitar solo in Take It Easy by the Eagles. ^ signifies bends and when they are in succession or in between notes it means the bend is held. In the last section the bends on the G string are optional because on the studio version they are overdubbed, however all the notes can still be played on one guitar. Was this info helpful? Yes No
[Solo]
e|------3-3---3-3-------3-3--|---------------------------|
B|------3-3---3-3-3h5---3-3--|--3\1---1/3-3---3\1-0-1-1--|
G|--2/4-----4---------4------|--4\2-0-2/4---4-4\2-0-2-0--|
D|---------------------------|---------------------------|
A|---------------------------|---------------------------|
E|---------------------------|---------------------------|
    
e|---------------------------|
B|------1-----1/3-3---3\1----|
G|------0-----2/4---4-4\2-0--|
D|--0-2---0-2----------------|
A|---------------------------|
E|---------------------------|

e|---------------------|
B|------10-------------|
G|--/11----11-11\9-7v--|
D|---------------------|
A|---------------------|
E|---------------------|

e|-------------|--------------------------|
B|------8------|--------------------------|
G|--7/9---9-9--|--10^12^12^12^12^12r10p8--|
D|-------------|--------------------------|
A|-------------|--------------------------|
E|-------------|--------------------------|

e|--------12-12-10h12-12-10h12-10--|------------------|
B|--10/12----12-10h12-12-10h12-10--|-------10---------|
G|---------------------------------|--9^11^^^^11r9-7--|
D|---------------------------------|------------------|
A|---------------------------------|------------------|
E|---------------------------------|------------------|

e|------------------|--------10-------------------|
B|------8---10-8----|--10^12^^^-10^12^12r10-8-----|
G|--7/9---9------9--|-------------------------9v--|
D|------------------|-----------------------------|
A|------------------|-----------------------------|
E|------------------|-----------------------------|

e|--------7-8-7-----|-----------------------|
B|--8h10v-------10--|------8----------------|
G|------------------|--7^9^^-7^9-7p5---5----|
D|------------------|----------------7---7--|
A|------------------|-----------------------|
E|------------------|-----------------------|

e|--10----------------------|--14-----|
B|--10^12^12^12^12^12r10-8--|--13^15--|
G|--10^12^12^12^12^12r10----|---------|
D|--------------------------|---------|
A|--------------------------|---------|
E|--------------------------|---------|


****************************************************************

| ^ = bend
| ^^... = hold bend
| r = release
| / = slide up
| \ = slide down
| h = hammer on
| p = pull off
| v = vibrato

****************************************************************

            
            
Suggest correction
Creating personal tab
Creating personal tab
You can edit any tab online and save it as your Personal.

You can edit, replace or remove any tab part or add personal notes – all changes will be seen only by you.

Personal tabs can be accessed anytime from any device, even offline.
Learn more »
Give kudos to tab author, rate the tab!
1 2 3 4 5
comments
print report bad tab
guest
You may want to rate the tab now too:
select rating
Wanna post a correction for this tab? Suggest correction