Oops, an error
Loading. Please wait.

Try And Love Again bass

version 2
version 2

Whole song

Interactive

by Eagles
318 views 3 this week
no commentswrite comment
1 2 3 4 5
2 more votes to show rating
add to favorites
×
Save as Personal and add changes to this tab that will be seen only by you. Learn more ›
×
You can save this tab as Personal to edit and correct it or add notes. All changes will be seen only by you. Learn more »
launch autoscroll
font size
0
reset
guitar tuner
edit
Autoscroll
slow
fast
+/-
esc
set tempo
stop
Author
Difficulty
Eagles
Try and love again
 
    1976 ELEKTRA ASYLUM Records
 
Bassist : Randy Meisner
  
Bass Tab
 
           
Tuning : E A D G
Tempo  : 154 bpm
 

   Intro:                                                      
G||------------------|-------------------|-------------------|-------------------|-
D||---Guitar play----|-------------------|--5~~--------------|-(5)~~-------------|-
A||------------------|-------------------|-------------------|-------------------|-
E||------------------|-------------------|-------------------|-------------------|-
 
           
G|-------------------|-------------------|-------------------|-------------------|-
D|-------------------|-------------------|-------------------|-------------------|-
A|--5~~--------------|--5~~--------------|-------------------|-------------------|-
E|-------------------|-------------------|--3~~--------------|--3~~--------------|-
 

Verse1: 00:25
G|------------------------|-------------------------|-
D|------------------------|-------------------------|-
A|-5--------x-5--5------0-|--5--------x-5--5------0-|-
E|------------------------|-------------------------|-
When you're out there on your own
Where your memories can find you
 
00:32
G|------------11--9--7--9--|-------4-----2--0---4-----|-----------------------|-
D|--5~---------------------|--5~----------------------|-----------------------|-
A|-------------------------|------------------------0-|--5-------x-5--5-----0-|-
E|-------------------------|--------------------------|-----------------------|-
Like a circle goes around
 
G|------------------------|------------------------|-------------------------|-
D|------------------------|------------------------|-------------------------|-
A|--5--------x-5--5-----0-|------------------------|----------------0--2--5--|-
E|------------------------|--3---------3--3------0-|--3------0-3-------------|-
You were lost until you found out
What it all comes down to
 

Bridge1: 00:50
G|-----------------------|-----------------------|-----------------------|-
D|--5----4----2--------x-|--4---x-7---x----------|-----------------------|-
A|-----------------------|-----------------------|--5--------------------|-
E|-----------------------|-----------------------|-----------------------|-
One by one
The lonely feelings come
G|-----------------------|-----------------------|-----------------------|-
D|--5----4----2--------x-|--4---x-7---x----------|---------5-------------|-
A|-----------------------|-----------------------|--5---------5--------0-|-
E|-----------------------|-----------------------|-----------------------|-
Day by day,
they slowly fade away
 

Verse2: 01:04
G|-------------------------|-------------------------|-
D|-------------------------|-------------------------|-
A|--5--------x-5--5------0-|--5--------x-5--5------0-|-
E|-------------------------|-------------------------|-
Oh,    the look was in her eyes
You never know what might be found there
 
G|------------11--9--7--9--|------4-----2--0---4-----|------------------------|-
D|--5----------------------|--5----------------------|------------------------|-
A|-------------------------|-----------------------0-|--5---------5--5------x-|-
E|-------------------------|-------------------------|------------------------|-
She was dancing right in time
 
G|------------------------|------------------------|-------------------------|-
D|------------------------|------------------------|-------------------------|-
A|--5--------x-5--5-----0-|------------------------|----------------0--2--5--|-
E|------------------------|--3---------3--3------0-|--3------0-3-------------|-
And the moves she made so fine
Like the music that surrounds her
 
Bridge2: 01:28       
G|-----------------------|-----------------------|-----------------------|-
D|--5----4----2--------x-|--4---x-7---x----------|-----------------------|-
A|-----------------------|-----------------------|--5--------------------|-
E|-----------------------|-----------------------|-----------------------|-
Should I stay or go?
I really want to know
 
G|-----------------------|-----------------------|-----------------------|-
D|--5----4----2--------x-|--4---x-7---x----------|---------5-------------|-
A|-----------------------|-----------------------|--5---------5--------0-|-
E|-----------------------|-----------------------|-----------------------|-
Would I lose or win
If I try and love again?
 

Chorus: 01:43  
G|----------------------------|----------------------------|-
D|----------------------------|----------------------------|-
A|-------------5g7--5-----g5--|-------------5g7--5---------|-
E|--3--------x-----------7----|--3--------x-----------7g5--|-
oh, Gonna try and love again
G|----------------------------|----------------------------|-
D|-------------7g9--7-----g7--|-------------7g9--7---------|-
A|--5--------5-----------9----|--5--------5-----------9g7--|-
E|----------------------------|----------------------------|-
 
G|----------------------------|----------------------------|-
D|----------------------------|----------------------------|-
A|-------------5g7--5-----g5--|-------------5g7--5---------|-
E|--3--------x-----------7----|--3--------x-----------7g5--|-
I'm gonna try and love again
G|----------------------------|----------------------------|-
D|-------------7g9--7-----g7--|-------------7g9--7---------|-
A|--5--------5-----------9----|--5--------5-----------9g7--|-
E|----------------------------|----------------------------|-
 
Bridge2: 02:08
G|----------------------------|----------------------------|-
D|----------------------------|----------------------------|-
A|-------------5g7--5----7g5--|-------------5g7--5--5------|
E|--3--------x----------------|--3--------x-----------7-5--|
oh, Gonna try and love...
 
Instrumental: 02:14 (guitar intro)
G|------------------|-------------------|-
D|--5~~-------------|-(5)~~-------------|-
A|------------------|-------------------|-
E|------------------|-------------------|-
 
G|----------------------------|----------------------------|-
D|----------------------------|----------------------------|-
A|-------------5g7--5-----g5--|-------------5g7--5---------|-
E|--3--------x-----------7----|--3--------x-----------7g5--|-
 
G|----------------------------|----------------------------|-
D|-------------7g9--7-----g7--|-------------7g9--7---------|-
A|--5--------5-----------9----|--5--------5-----------9g7--|-
E|----------------------------|----------------------------|-
 
G|----------------------------|----------------------------|-
D|----------------------------|----------------------------|-
A|-------------5g7--5----7g5--|-------------5g7--5--5------|
E|--3--------x----------------|--3--------x-----------7-5--|
 
Verse3: 02:39
G|-------------------------|-------------------------|-
D|-------------------------|-------------------------|-
A|--5--------x-5--5------0-|--5--------x-5--5------0-|-
E|-------------------------|-------------------------|-
Right or wrong, what's done is done
It's only moments that we borrow
 
G|------------11--9--7--9--|------4-----2--0---4-----|------------------------|-
D|--5----------------------|--5----------------------|------------------------|-
A|-------------------------|-----------------------0-|--5---------5--5------x-|-
E|-------------------------|-------------------------|------------------------|-
But the thoughts will linger on
 
G|------------------------|------------------------|-------------------------|-
D|------------------------|------------------------|-------------------------|-
A|--5--------x-5--5-----0-|------------------------|----------------0--2--5--|-
E|------------------------|--3---------3--3------0-|--3------0-3-------------|-
Of the lady and her song
When the sun comes up tomorrow
 

Bridge3: 03:05
G|-----------------------|-----------------------|-----------------------|-
D|--5----4----2--------x-|--4---x-7---x----------|-----------------------|-
A|-----------------------|-----------------------|--5--------------------|-
E|-----------------------|-----------------------|-----------------------|-
Well, it might take years to see
Through all these tears
 
G|-----------------------|-----------------------|-----------------------|-
D|--5----4----2--------x-|--4---x-7---x----------|---------5-------------|-
A|-----------------------|-----------------------|--5---------5--------0-|-
E|-----------------------|-----------------------|-----------------------|-
Don't let go
When you find it you will know
 
Chorus finale: 03:18  
G|----------------------------|----------------------------|-
D|----------------------------|----------------------------|-
A|-------------5g7--5-----g5--|-------------5g7--5---------|-
E|--3--------x-----------7----|--3--------x-----------7g5--|-
ooooh, gonna try and love again
G|----------------------------|----------------------------|-
D|-------------7g9--7-----g7--|-------------7g9--7---------|-
A|--5--------5-----------9----|--5--------5-----------9g7--|-
E|----------------------------|----------------------------|-
 
G|----------------------------|----------------------------|-
D|----------------------------|----------------------------|-
A|-------------5g7--5-----g5--|-------------5g7--5---------|-
E|--3--------x-----------7----|--3--------x-----------7g5--|-
oooooh,  gonna try and love again
G|----------------------------|----------------------------|-
D|-------------7g9--7-----g7--|-------------7g9--7---------|-
A|--5--------5-----------9----|--5--------5-----------9g7--|-
E|----------------------------|----------------------------|-
 

G|----------------------------|----------------------------|-
D|----------------------------|----------------------------|-
A|-------------5g7--5-----g5--|-------------5g7--5---------|-
E|--3--------x-----------7----|--3--------x-----------7g5--|-
oooooh,  gonna try and love again
G|----------------------------|----------------------------|-
D|-------------7g9--7-----g7--|-------------7g9--7---------|-
A|--5--------5-----------9----|--5--------5-----------9g7--|-
E|----------------------------|----------------------------|-
ooooooh, 
 

G|----------------------------|----------------------------|-
D|----------------------------|----------------------------|-
A|-------------5g7--5-----g5--|-------------5g7--5---------|-
E|--3--------x-----------7----|--3--------x-----------7g5--|-
ooooooh,                                              +++
G|----------------------------|------------------777-------|-
D|-------------7g9--7-----g7--|-------------7g9------9g7---|-
A|--5--------5-----------9----|--5--------5----------------|-
E|----------------------------|----------------------------|-
Sometimes, sometimes again
 

G|----------------------------|----------------------------|-
D|----------------------------|----------------------------|-
A|-------------5g7--5-----g5--|-------------5g7--5---------|-
E|--3--------x-----------7----|--3--------x-----------7g5--|-
oooooooh, 
G|----------------------------|----------------------------|-
D|-------------7g9--7-----g7--|-------------7g9--7---------|-
A|--5--------5-----------9----|--5--------5-----------9g7--|-
E|----------------------------|----------------------------|-
ooooooooh, 
 

G|----------------------------|----------------------------|-
D|----------------------------|----------------------------|-
A|-------------5g7--5-----g5--|-------------5g7--5---------|-
E|--3--------x-----------7----|--3--------x-----------7g5--|-
gonna try,                                            +++
G|----------------------------|------------------777-------|-
D|-------------7g9--7-----g7--|-------------7g9------9g7---|-
A|--5--------5-----------9----|--5--------5----------------|-
E|----------------------------|----------------------------|-
gonna try,
 

G|----------------------------|----------------------------|-
D|----------------------------|----------------------------|-
A|-------------5g7--5-----g5--|-------------5g7--5---------|-
E|--3--------x-----------7----|--3--------x-----------7g5--|-
gonna try, gonna try, gonna try
gonna try, gonna try, gonna try                       +++
G|----------------------------|------------------777-------|-
D|-------------7g9--7-----g7--|-------------7g9------9g7---|-
A|--5--------5-----------9----|--5--------5----------------|-
E|----------------------------|----------------------------|-
gonna try, gonna try, gonna try...
gonna try, gonna try, gonna try...
 

G|----------------------------|----------------------------|-
D|----------------------------|----------------------------|-
A|-------------5g7--5-----g5--|-------------5g7--5---------|-
E|--3--------x-----------7----|--3--------x-----------7g5--|-
 
G|----------------------------|----------------------------|-
D|-------------7g9--7-----g7--|-------------7g9--7---------|-
A|--5--------5-----------9----|--5--------5-----------9g7--|-
E|----------------------------|----------------------------|-
 
G|----------------------------|----------------------------|-
D|----------------------------|----------------------------|-
A|-------------5g7--5-----g5--|-------------5g7--5---------|-
E|--3--------x-----------7----|--3--------x-----------7g5--|-
                                                  +++
G|----------------------------|------------------777-------|-
D|-------------7g9--7-----g7--|-------------7g9------9g7---|-
A|--5--------5-----------9----|--5--------5----------------|-
E|----------------------------|----------------------------|-
 
Repeat till fading out...
 
End: 05:11
 

Duration Legend
---------------
W - whole
H - half
Q - quarter
E - 8th
S - 16th
T - 32nd
X - 64th
. - note dotted
|-n-|  - n-tuplets
 
Tablature Legend
----------------
L - tied note
x - dead note
g - grace note
(n) - ghost note
> - accentuded note
NH - natural harmonic
AH - artificial harmonic
TH - tapped harmonic
SH - semi harmonic
PH - pitch harmonic
h - hammer on
p - pull off
b - bend
br - bendRelease
pb - preBend
pbr - preBendRelease
brb - bendReleaseBend
\n/ - tremolo bar dip
\n - tremolo bar dive
-/n - tremolo bar Release up
/n\ - tremolo bar inverted dip
/n - tremolo bar return
-\n - tremolo bar Release down
S - shift slide
s - legato slide
/ -  slide into from below or out of upwards
\ -  slide into from above or out of downwards
~ - vibrato
W - wide vibrato
tr - trill
TP - tremolo picking
T - tapping
S - slap
P - pop
< - fade in
^ - brush up
v - brush down

            
            
Suggest correction
Creating personal tab
Creating personal tab
You can edit any tab online and save it as your Personal.

You can edit, replace or remove any tab part or add personal notes – all changes will be seen only by you.

Personal tabs can be accessed anytime from any device, even offline.
Learn more »
Give kudos to tab author, rate the tab!
1 2 3 4 5
comments
print report bad tab
guest
You may want to rate the tab now too:
select rating
Wanna post a correction for this tab? Suggest correction