Oops, an error
Loading. Please wait.

Seven Angels tab

by Earth
4,076 views 18 this week
11 commentsread comments
1 2 3 4 5
x 7
add to favorites
×
Save as Personal and add changes to this tab that will be seen only by you. Learn more ›
×
You can save this tab as Personal to edit and correct it or add notes. All changes will be seen only by you. Learn more »
launch autoscroll
font size
0
reset
how to read this tab
guitar tuner
edit
Autoscroll
slow
fast
+/-
esc
set tempo
stop
Drop A tuning: each tab line is a section. Over the whole song is an A bass drone.
This song is structurally improvised and as such you'll be hard pressed to play it
exactly as Dylan plays it. It's all in 4/4 so he only really varies the 
addition of a bar or two of open chugging to bridge between sections. 

 B|---------------------------------------------------------------------------|
Bb|---------------------------------------------------------------------------|
 D|-----5---------------------------------------------------------------------|
 A|-4---5---5---5---0---------------------------------------------------------|
 E|-4---3---5---5---0---------------------------------------------------------|
 A|-4-------5---5---0---------------------------------------------------------|
                    .

 B|---------------------------------------------------------------------------|
Bb|---------------------------------------------------------------------------|
 D|---------------------------------------------------------------------------|
 A|-0-0-0-0--8\7--0-0---11\10--0-0--13/15\13-12~-0-0-0-0--11--0-0-7h10-9------|
 E|-0-0-0-0--6\5--0-0---9-\8---0-0--11/13\11-10~-0-0-0-0--11--0-0-7h10-9------|
 A|-0-0-0-0-------0-0--(0)-----0-0-(0)-----------0-0-0-0--11--0-0-7h10-9------|
    . . . .       . .          . .               . . . .      . .          

 B|---------------------------------------------|-------------------------------|
Bb|---------------------------------------------|-------------------------------|
 D|-------------7--------------6----------------|o-----------------------------o|
 A|-0-0-0-0-7-6-7--0-0-0-0-6-5-6--0-0-0-0-4-6-3-|o-0-----0-----0-----0---4-6-3-o|
 E|-0-0-0-0-7-6-5--0-0-0-0-6-5-4--0-0-0-0-4-6-3-|--0-----0-----0-----0---4-6-3--|
 A|-0-0-0-0-7-6----0-0-0-0-6-5----0-0-0-0-4-6-3-|--0-----0-----0-----0---4-6-3--|
    . . . .        . . . .        . . . .          .     .     .     . 

 B|---------------------------------|---------------------------|---------------|
Bb|---------------------------------|---------------------------|---------------|
 D|---------------------------------|---------2h5p2-1~----------|----5----------|
 A|-(0)-1--0----6----5----8----(8)--|-0--3-2------------0-0-0-0-|-4--5--5--5--0-|
 E|-(0)-1--0----6----5----8----(8)--|-0-----------------0-0-0-0-|-4--3--5--5--0-|
 A|-(0)-1--0----6----5----8----(8)--|-0-----------------0-0-0-0-|-4-----5--5--0-|
           .                          .                 . . . .               .


************************************

| b    Bend
| .    palm mute
| h    Hammer-on
| /    Slide up
| \    Slide down
| ~    Vibrato
| (n)  Ghost note
| p    Pull-off 

************************************

            
            
Suggest correction
Creating personal tab
Creating personal tab
You can edit any tab online and save it as your Personal.

You can edit, replace or remove any tab part or add personal notes – all changes will be seen only by you.

Personal tabs can be accessed anytime from any device, even offline.
Learn more »
comments
print report bad tab
11 comments total. Showing first comments.
0 reply
vomitingself 105 Apr 16, 2013 05:04 AM

great! thank you so much!

0 reply
Banjocal 536 Apr 17, 2013 11:36 AM

Any time, man. If anyone viewing this wants anything else done just shoot me a message.

0 reply
Banjocal 536 Jun 12, 2013 02:39 PM, edited on January 6 2014, 03:43 pm

UPDATE JUNE 13: made relevant changes to octaves and corrected any mistakes.

guest
You may want to rate the tab now too:
select rating
Wanna post a correction for this tab? Suggest correction