Oops, an error
Loading. Please wait.

September bass

version 1
version 1

Whole song

  • Has times and lyrics with tabs which are correct.

Interactive

148,648 views 384 this week
8 commentsread comments
1 2 3 4 5
x 73
add to favorites
×
Save as Personal and add changes to this tab that will be seen only by you. Learn more ›
×
You can save this tab as Personal to edit and correct it or add notes. All changes will be seen only by you. Learn more »
launch autoscroll
font size
0
reset
guitar tuner
edit
Autoscroll
slow
fast
+/-
esc
set tempo
stop
Author
 Artist  : Earth Wind and Fire
 Title   : September
 Tabber  : FunkAssFleaBass

[Intro]

 G|----------------|  |-----|
 D|--------17-19---|  |-----|
 A|----0-0---------|2x|--0--|
 E|----------------|  |-----|


[Verse]

 G|-----------------------|
 D|-----------------------|
 A|-5-5-4-2-2-4-2---------| 2x
 E|---------------0-2-5---|
                                                       |___ 1|___ 2|
 G|----------------------------------------------------|-----|-----|
 D|-------------2-3-4-----------5-7------5-7------5-7--|-----|-----|
 A|-5-5-4-2-2-4-------4-2---0-0------0-0------0-0------|-0-0-|-0-1-|
 E|----------------------------------------------------|-----|-----|


[Chorus]

 G|-------------------------|
 D|---4-2-------------------|
 A|-2-----0-2-4-4-2-----0---| 2x
 E|-----------------0-2-----|

 G|---------------------------------------------------------|
 D|---4-2---------2-3-4-----------5-7------5-7------5-7-----|
 A|-2-----0-2-4-4-------4-2---0-0------0-0------0-0-----0-0-|
 E|---------------------------------------------------------|

 Its a nice number, so play it nice! 
 Comments are always welcome.. Soulwings_cant_fly@Hotmail.com

 Enjoy!

            
            
Suggest correction
Creating personal tab
Creating personal tab
You can edit any tab online and save it as your Personal.

You can edit, replace or remove any tab part or add personal notes – all changes will be seen only by you.

Personal tabs can be accessed anytime from any device, even offline.
Learn more »
comments
print report bad tab
8 comments total. Showing first comments.
+2 reply
keith940 31 Mar 11, 2007 12:47 PM

Sweet bass work and a great tab!

+1 reply
Bassin Hodgey 41 Dec 03, 2008 12:18 PM

yeah i second that! the bass is really good.

+1 reply
againsteternity 105 Mar 13, 2009 08:32 PM

earth wind and fire own so do you

guest
You may want to rate the tab now too:
select rating
Wanna post a correction for this tab? Suggest correction