Oops, an error
Loading. Please wait.

Were Only In It For The Drugs tab

3,630 views 6 this week
1 commentread comment
1 2 3 4 5
1 last vote to show rating
add to favorites
×
Save as Personal and add changes to this tab that will be seen only by you. Learn more ›
×
You can save this tab as Personal to edit and correct it or add notes. All changes will be seen only by you. Learn more »
launch autoscroll
font size
0
reset
how to read this tab
guitar tuner
edit
Autoscroll
slow
fast
+/-
esc
set tempo
stop
Author
-----------------------------------------------------------------------------
               We're only in it for the drugs - Ebba Grön
-----------------------------------------------------------------------------
Tabbed by: Jonas
Artist: Ebba Grön
Song: We're only in it for the drugs
Tuning: Standard (EADGBe)

Den här svenska låten av Ebba Grön är väldigt enkel men kul att spela.
Translation: This swedish song by Ebba Grön is very simple but fun to play.

Intro:
e|---------------------------------------------------------------------------|
B|---------------------------------------------------------------------------|
G|---9-9-9---------9-9-9-9-9-9---9-9-9---------9-9-9-9-9-9-9-----------------|
D|---9-9-9--9-9-9--9-9-9-9-9-9---9-9-9--9-9-9--9-9-9-9-9-9-9--x-2------------|
A|---7-7-7--9-9-9--7-7-7-7-7-7---7-7-7--9-9-9--7-7-7-7-7-7-7-----------------|
E|----------7-7-7-----------------------7-7-7--------------------------------|


Chorus Riff 1:
e|---------------------------------------------------------------------------|
B|---------------------------------------------------------------------------|
G|--9-9-------9-9-------9-9-------9-9-9-9-9----------------------------------|
D|--9-9--9-9--9-9--9-9--9-9--9-9--9-9-9-9-9----------------------------------|
A|--7-7--9-9--7-7--9-9--7-7--9-9--7-7-7-7-7----------------------------------|
E|-------7-7-------7-7-------7-7---------------------------------------------|
  Det finns ingenting att göra...


Chorus riff 2:
e|---------------------------------------------------------------------------|
B|---------------------------------------------------------------------------|
G|--9-9-------9-9--------------------9-9-9-9-9-------------------------------|
D|--9-9--9-9--9-9--111111--7-7--9-9--9-9-9-9-9-------------------------------|
A|--7-7--9-9--7-7--111111--7-7--9-9--7-7-7-7-7-------------------------------|
E|-------7-7-------9-9-9---5-5--7-7------------------------------------------|
  Nä ursäkta nu överdrev jag...


Chorus riff 1:
e|---------------------------------------------------------------------------|
B|---------------------------------------------------------------------------|
G|--9-9-------9-9-------9-9-------9-9-9-9-9----------------------------------|
D|--9-9--9-9--9-9--9-9--9-9--9-9--9-9-9-9-9----------------------------------|
A|--7-7--9-9--7-7--9-9--7-7--9-9--7-7-7-7-7----------------------------------|
E|-------7-7-------7-7-------7-7---------------------------------------------|
  För så har det alltid varit...

Chorus riff 2:
e|---------------------------------------------------------------------------|
B|---------------------------------------------------------------------------|
G|--9-9-------9-9--------------------9-9-9-9-9-------------------------------|
D|--9-9--9-9--9-9--111111--7-7--9-9--9-9-9-9-9-------------------------------|
A|--7-7--9-9--7-7--111111--7-7--9-9--7-7-7-7-7-------------------------------|
E|-------7-7-------9-9-9---5-5--7-7------------------------------------------|
  Man ska va som en zombie...

Bridge:
e|---------------------------------------------------------------------------|
B|---------------------------------------------------------------------------|
G|---------------------------------------------------------------------------|
D|---7-7--9-9-9-9---7-7--9-9-9-9---7-7---9-9-9-9---7-7---9-9-9-9-------------|
A|---7-7--9-9-9-9---7-7--9-9-9-9---7-7---9-9-9-9---7-7---9-9-9-9-------------|
E|---5-5--7-7-7-7---5-5--7-7-7-7---5-5---7-7-7-7---5-5---7-7-7-7-------------|


Verse riff 1:
e|---------------------------------------------------------------------------|
B|---------------------------------------------------------------------------|
G|---9-9-9-9-9-9-9-9-9-9-----------------------------------------------------|
D|---9-9-9-9-9-9-9-9-9-9--9-9-9-9-9-9-9-9-9-9--x-2---------------------------|
A|---7-7-7-7-7-7-7-7-7-7--9-9-9-9-9-9-9-9-9-9--------------------------------|
E|------------------------7-7-7-7-7-7-7-7-7-7--------------------------------|
  För vi var trötta på tunnelbanan...

Verse riff 2:
e|---------------------------------------------------------------------------|
B|---------------------------------------------------------------------------|
G|-------------------------9-9-9-9-9-9--6-6-6-6-6----------------------------|
D|---111111111--9-9-9-9-9--9-9-9-9-9-9--6-6-6-6-6----------------------------|
A|---111111111--9-9-9-9-9--7-7-7-7-7-7--4-4-4-4-4----------------------------|
E|---9-9-9-9-9--7-7-7-7-7----------------------------------------------------|
  Vi ville bara ha ett plejs...

Verse riff 3:
e|---------------------------------------------------------------------------|
B|---------------------------------------------------------------------------|
G|-------------------------9-9-9-9-9-9---------------------------------------|
D|---111111111--9-9-9-9-9--9-9-9-9-9-9--9-9-9-9-9-9--------------------------|
A|---111111111--9-9-9-9-9--7-7-7-7-7-7--9-9-9-9-9-9--------------------------|
E|---9-9-9-9-9--7-7-7-7-7---------------7-7-7-7-7-7--------------------------|
  Vi ville bara ha, nånting för oss!

After the first verse they repeat it again only with different lyrics:

Verse riff 1: För vi var trötta på zombielivet...
Verse riff 2: Vi ville bara ha ett plejs...
Verse riff 3: Vi ville bara ha, nånting för oss!

Then they go back to the chorus again:

Chorus riff 1: För det finns ingenting att göra...
Chrous riff 2: Nä ursäkta nu överdrev jag...
Chorus riff 1: För så har det alltid varit...
Chorus riff 2: Man ska va som en zombie...


Then the bridge and verse again, but with different lyrics:

Bridge:
Verse riff 1: Vi började med konserter...
Verse riff 2: Det tyckte inte den svenska byråkratin...
Verse riff 3. Det tyckte inte vår stolta maskin!
Verse riff 1: Dom sa stopp...
Verse riff 2: Det tyckte alltså den svenska byråkratin...
Verse riff 3: Det tyckte alltså vår stolta maskin!

Then they go back to the chorus but with different lyrics:

Chrous riff 1: Det finns ju diskotek...
Chrous riff 2: Och där kan vi häcka...
Chours riff 1: Där kan vi gå som zombies...
Chorus riff 2: Där kan vi häcka bäst fan vi vill...

Then they play the verse again but yet again with different lyrics:

Verse riff 2: Där ute kan vi viska...
Verse riff 3: Du han ser så blå ut...

Then it's the chorus without any lyrics:

Chorus riff 1:
Chorus riff 2:
Chorus riff 1:
Chorus riff 2:
Chorus riff 1: Aaahhhh...
Chours riff 2: Aaahhhh...
Chorus riff 1: Aaahhhh...
Chorus riff 2: Aaahhhh...

Then it's the last two choruses:

Chorus riff 1: Det finns ingenting att göra...
Chorus riff 2: Nä ursäkta nu överdrev jag...
Chrous riff 1: För så har det alltid varit...
Chorus riff 2: Man ska va som en zombie va nöjd med sin lott och aldrig fråga om nåt!

That's We're only in it for the drugs by Ebba Grön! Have fun playing it and please drop 
comment cause I like reading them.


| /  slide up
| \  slide down
| h  hammer-on
| p  pull-off
| ~  vibrato
| +  harmonic
| x  Mute note
=============================================================================

            
            
Suggest correction
Creating personal tab
Creating personal tab
You can edit any tab online and save it as your Personal.

You can edit, replace or remove any tab part or add personal notes – all changes will be seen only by you.

Personal tabs can be accessed anytime from any device, even offline.
Learn more »
Give kudos to tab author, rate the tab!
1 2 3 4 5
comments
print report bad tab
1 comment total.
0 reply
GreenTabber 70 Apr 03, 2013 06:36 AM

Just a small correction! The ending chord on the second verse riff (2), should be an A-chord instead of a C#. Like this:

Verse riff 2:

e|-----------------------------------------------------------------|
B|----------------------------------------------------------------------|
G|-------------------------9-9-9-9-9-9----------------------------------|
D|---111111111--9-9-9-9-9--9-9-9-9-9-9--7-7-7-7-7-----------------------|
A|---111111111--9-9-9-9-9--7-7-7-7-7-7--7-7-7-7-7-----------------------|
E|---9-9-9-9-9--7-7-7-7-7---------------5-5-5-5-5-----------------------|
Vi ville bara ha ett plejs...

guest
You may want to rate the tab now too:
select rating
Wanna post a correction for this tab? Suggest correction