Oops, an error
Loading. Please wait.

Bright bass

version 1
version 1

Whole song

5,147 views 6 this week
2 commentsread comments
1 2 3 4 5
x 9
add to favorites
×
Save as Personal and add changes to this tab that will be seen only by you. Learn more ›
×
You can save this tab as Personal to edit and correct it or add notes. All changes will be seen only by you. Learn more »
launch autoscroll
font size
0
reset
guitar tuner
edit
Autoscroll
slow
fast
+/-
esc
set tempo
stop
Author
Difficulty
Bright - Bass Tab

Note: No bass until 0:32.

[Verse I]
G|------------------------------------------------------------|
D|------------------------------------------------------------|
A|-9~--------6~-------------------------9~--------9----9--8---|
E|---------------------7~-----9~---------------7--------------|

[Chorus I]
G|------------------------------------------------------------|
D|------------------------------------------------------------|
A|-6~------------------6~-------------------------------------|
E|-----------7~------------------7~-----9---------------------|

[Verse II]
[x4]
G|------------------------------------------------------------|
D|------------------------------------------------------------|
A|--------9------6--------------------------------------------|
E|-7--------------------9-------------------------------------|

[x2]
G|------------------------------------------------------------|
D|------------------------------------------------------------|
A|-9~------8--6-----------------------------------------------|
E|-----------------7------------------------------------------|

G|------------------------------------------------------------|
D|------------------------------------------------------------|
A|-9~--------9----8--6~--------6-------------------------9----|
E|----------------------------------6--7--------9-------------|

G|------------------------------------------------------------|
D|------------------------------------------------------------|
A|----9----9--8-----------------------------------------------|
E|-7----------------------------------------------------------|

[Chorus II]
G|------------------------------------------------------------|
D|------------------------------------------------------------|
A|-6~------------------6~-------------------------------------|
E|-----------7~------------------7~-----9---------------------|

[Bridge]
[x4]
G|------------------------------------------------------------|
D|------------------------------------------------------------|
A|--------9------6--------------------------------------------|
E|-7--------------------9-------------------------------------|

G|------------------------------------------------------------|
D|-------------6--------------------------6-------------------|
A|-6------9-------------9--8--6------9------------------------|
E|------------------------------------------------------------|

[No bass from 2:42-2:52]

[Outro Verse]
[x4]
G|------------------------------------------------------------|
D|------------------------------------------------------------|
A|--------9------6--------------------------------------------|
E|-7--------------------9-------------------------------------|

[x4]
G|------------------------------------------------------------|
D|------------------------------------------------------------|
A|-9~----9----8--6--------------------------------------------|
E|--------------------7---------------------------------------|

G|------------------------------------------------------------|
D|------------------------------------------------------------|
A|-9~---------------------------------------------------------|
E|------------------------------------------------------------|

If there's any confusion, questions, or advice on how to 
improve it, please post a comment. Feel free to check out 
my guitar and bass covers on YouTube.  

https://www.youtube.com/user/Trarrgargra

Have fun playing, and please rate! 

-Rarrlow

            
            
Suggest correction
Creating personal tab
Creating personal tab
You can edit any tab online and save it as your Personal.

You can edit, replace or remove any tab part or add personal notes – all changes will be seen only by you.

Personal tabs can be accessed anytime from any device, even offline.
Learn more »
comments
print report bad tab
2 comments total.
0 reply
markhh 62 Jul 19, 2015 04:30 PM

I Think the [Verse II] header is misplaced. Shouldn't it be after the two repeat sections?

0 reply
markhh 62 Jul 24, 2015 11:59 AM

Echosmith - Bright - Bass Tab
Each dash is a half beat (4/4).
Timings from video: https://www.youtube.com/watch?v=kMAzstG5O7E

No bass until 0:26.

[Intro]
R|--------|--------|

[Verse I]
R|--------|--------|--------|--------|--------|--------|--------|--------|

G|--------|--------|--------|--------|--------|--------|--------|--------|
D|--------|--------|--------|--------|--------|--------|--------|--------|
A|9-------|--------|6-------|--------|--------|--------|9-------|9---9-8-|
E|--------|--------|--------|--------|7-------|9-------|------7-|--------|

[Chorus I] (0:48)
G|--------|--------|--------|--------|
D|--------|--------|--------|--------|
A|6-------|--------|6-------|--------|
E|--------|7-------|--------|7---9---|

G|--------|--------|--------|--------|--------|--------|--------|--------|
D|--------|--------|--------|--------|--------|--------|--------|--------|
A|----9---|6-------|----9---|6-------|----9---|6-------|----9---|6-------|
E|7-------|----9---|7-------|----9---|7-------|----9---|7-------|----9---|

G|--------|--------|--------|--------|
D|--------|--------|--------|--------|
A|9-----8-|6-------|9-----8-|6-------|
E|--------|----7---|--------|----7---|

[Verse II] (1:32)
G|--------|--------|--------|--------|--------|--------|--------|--------|
D|--------|--------|--------|--------|--------|--------|--------|--------|
A|9-------|9-----8-|6-------|6-------|--------|--------|9-------|9-----8-|
E|--------|--------|--------|------6-|7-------|9-------|------7-|--------|

[Chorus II] (1:53)
G|--------|--------|--------|--------|
D|--------|--------|--------|--------|
A|6-------|--------|6~------|--------|
E|------6-|7-------|--------|7---9---|

G|--------|--------|--------|--------|--------|--------|--------|--------|
D|--------|--------|--------|--------|--------|--------|--------|--------|
A|----9---|6-------|----9---|6-------|----9---|6-------|----9---|6-------|
E|7-------|----9---|7-------|----9---|7-------|----9---|7-------|----9---|

[Bridge] (2:24)
G|--------|--------|--------|--------|
D|--------|6----8--|--------|6-------|
A|6-----9-|------98|6---6-9-|--------|
E|--------|--------|--------|--------|

[Outro Chorus]
[No bass from 2:34-2:45]
R|--------|--------|--------|--------|

G|--------|--------|--------|--------|--------|--------|
D|--------|--------|--------|--------|--------|--------|
A|----9---|6-------|----9---|6-------|----9---|6-------|
E|7-------|----9---|7-------|----9---|7-------|----9---|

[x4]
G|--------|--------|
D|--------|--------|
A|9---9-8-|6-------|
E|--------|----7---|

G|--------|
D|--------|
A|9-------|
E|--------|

guest
You may want to rate the tab now too:
select rating
Wanna post a correction for this tab? Suggest correction