Oops, an error
Loading. Please wait.
We have Chord Pro version of Cool Kids.
It's the closest thing you can get to the original song and it has interactive parts. Check out the tab »
×
530 views 1 this week
no commentswrite comment
1 2 3 4 5
3 more votes to show rating
add to favorites
×
Save as Personal and add changes to this tab that will be seen only by you. Learn more ›
×
You can save this tab as Personal to edit and correct it or add notes. All changes will be seen only by you. Learn more »
launch autoscroll
font size
0
reset
how to read this tab
guitar tuner
backing track
0:00
0:00
edit
Autoscroll
slow
fast
+/-
esc
set tempo
stop
About this tab version
This is a playable vocals version. Was this info helpful? Yes No
-------------------------------------------------------------------------------------------
                            Cool Kids-Echosmith (Playable Vocals) 
-------------------------------------------------------------------------------------------

Tabbed by:Mark Donohue 
E-mail:mwdonohue97@gmail.com

Tuning:Standard 

___________________________________________________________________________________________


e|---------------------------------------------------------------------------| INTRO
B|---------------------------------------------------------------------------|
G|-------8-10--------------------------8-10----------------------------------|
D|---3-6--------8-10-8-------------3-6--------8-10-8-------------------------|
A|---------------------6---10------------------------6---10------------------|
E|---------------------------------------------------------------------------|

e|---------------------------------------------------------------------------| VERSE 1 
B|---------------------------------------------------------------------------|
G|---1-1-1-8-8-8-5-10-1---8-5-8-10-3-1-1---1---------------------------------| She sees them walking in a 
D|---------------------------------------------------------------------------| straight line,that's not 
A|---------------------------------------------------------------------------| really her style 
E|---------------------------------------------------------------------------|

e|---------------------------------------------------------------------------| 
B|---------------------------------------------------------------------------|
G|---1-1-1-8-8-8-10-1---1-8-5-8-10-3-1---1-----------------------------------| And they all got the same 
D|---------------------------------------------------------------------------| heartbeat, but hers is falling 
A|---------------------------------------------------------------------------| behind 
E|---------------------------------------------------------------------------|

e|---------------------------------------------------------------------------|  
B|---------------------------------------------------------------------------|
G|---8-8-8-5-10-1---8-8-8-8/10-13-3/5----------------------------------------| Nothing in this world could 
D|--------------------------------------3-6-8--------------------------------| ever bring them down 
A|---------------------------------------------------------------------------|
E|---------------------------------------------------------------------------|

e|---------------------------------------------------------------------------| 
B|---------------------------------------------------------------------------|
G|---8-8-5-8-10-1---5-8-5-8-10-3-1-------------------------------------------| Yeah they're invincible, 
D|---------------------------------------------------------------------------| and she's just in the 
A|---------------------------------------------------------------------------| background 
E|---------------------------------------------------------------------------|

e|---------------------------------------------------------------------------| CHORUS 
B|---6-9-11---6-9-11-11-6-11-11-9-11-6---6-9-11-11-6-9-11-9-11-6-------------|
G|---------------------------------------------------------------------------| And she says/I wish that I 
D|---------------------------------------------------------------------------| could be like the cool kids/
A|---------------------------------------------------------------------------| cause all the cool kids they 
E|---------------------------------------------------------------------------| seem to fit in 

e|---------------------------------------------------------------------------|  
B|---6-9-11-11-6-11-11-9-11-13---11-9-11-13-11-------------------------------|
G|---------------------------------------------------------------------------| I wish that I could be like 
D|---------------------------------------------------------------------------| the cool kids/Like the cool 
A|---------------------------------------------------------------------------| kids 
E|---------------------------------------------------------------------------|

e|---------------------------------------------------------------------------| BRIDGE 
B|---------------------------------------------------------------------------|
G|-------8-10--------------------------8-10----------------------------------|
D|---3-6--------8-10-8-------------3-6--------8-10-8-------------------------|
A|---------------------6---10------------------------10---6------------------|
E|---------------------------------------------------------------------------|

e|---------------------------------------------------------------------------| VERSE 2 
B|---------------------------------------------------------------------------|
G|---1-1-1-8-8-8-5-10-1---8-8-8-10-3-1-1---1---------------------------------| He says I'm talking with a 
D|---------------------------------------------------------------------------| big smile, but they haven't 
A|---------------------------------------------------------------------------| got a clue 
E|---------------------------------------------------------------------------|

e|---------------------------------------------------------------------------| 
B|---------------------------------------------------------------------------|
G|---1-8-8-8-5-10-1---8-8-5-8/10-3-1-1---1-----------------------------------| Yeah they're living the good 
D|---------------------------------------------------------------------------| life, can't see what he's 
A|---------------------------------------------------------------------------| going through 
E|---------------------------------------------------------------------------|

e|---------------------------------------------------------------------------|  
B|--------------------------------------4/11---------------------------------|
G|---8-8-8-5-10-1---8-8-8-8-10-13-3-5----------------------------------------| They're driving fast cars,
D|---------------------------------------------------------------------------| but they don't know where 
A|---------------------------------------------------------------------------| they're going 
E|---------------------------------------------------------------------------|

e|---------------------------------------------------------------------------| 
B|---------------------------------------------------------------------------|
G|---8-5-10-1---8-5-8-10-3-3-1-----------------------------------------------| In the fast lane, living life 
D|---------------------------------------------------------------------------| without knowing 
A|---------------------------------------------------------------------------|
E|---------------------------------------------------------------------------|

e|---------------------------------------------------------------------------| CHORUS
B|---6-9-11---6-9-11-11-6-11-11-9-11-6---6-9-11-11-6-9-11-9-11-6-------------|
G|---------------------------------------------------------------------------| And he says/I wish that I 
D|---------------------------------------------------------------------------| could be like the cool kids/
A|---------------------------------------------------------------------------| cause all the cool kids they 
E|---------------------------------------------------------------------------| seem to fit in 

e|---------------------------------------------------------------------------| 
B|---6-9-11-11-6-11-11-9-11-13---11-9-11-13-11-------------------------------|
G|---------------------------------------------------------------------------| I wish that I could be like 
D|---------------------------------------------------------------------------| the cool kids/Like the cool 
A|---------------------------------------------------------------------------| kids 
E|---------------------------------------------------------------------------|

e|---------------------------------------------------------------------------|  
B|-------6-9-11-11-6-11-11-9-11-6---6-9-11-11-6-9-11-9-11-6------------------|
G|---------------------------------------------------------------------------| I wish that I 
D|---3-----------------------------------------------------------------------| could be like the cool kids/
A|---------------------------------------------------------------------------| cause all the cool kids they 
E|---------------------------------------------------------------------------| seem to get it  

e|---------------------------------------------------------------------------|  
B|---6-9-11-11-6-11-11-9-11-13---11-9-11-13-11-------------------------------|
G|---------------------------------------------------------------------------| I wish that I could be like 
D|---------------------------------------------------------------------------| the cool kids/Like the cool 
A|---------------------------------------------------------------------------| kids 
E|---------------------------------------------------------------------------|


e|---1-4-11-13---6-8-6-------------------------------------------------------| BRIDGE 
B|---------------------4---8-------------------------------------------------|
G|------------------------------------8-10-----------------------------------|
D|--------------------------------3-6--------8-10-8--------------------------|
A|--------------------------------------------------10---6-------------------|
E|---------------------------------------------------------------------------|

e|---------------------------------------------------------------------------| CHORUS 
B|---6-9-11---6-9-11-11-6-11-11-9-11-6---6-9-11-11-6-9-11-9-11-6-------------|
G|---------------------------------------------------------------------------| And they said/I wish that I 
D|---------------------------------------------------------------------------| could be like the cool kids/
A|---------------------------------------------------------------------------| cause all the cool kids they 
E|---------------------------------------------------------------------------| seem to fit in 

e|---------------------------------------------------------------------------|  
B|---6-9-11-11-6-11-11-9-11-13---11-9-11-13-11-------------------------------|
G|---------------------------------------------------------------------------| I wish that I could be like 
D|---------------------------------------------------------------------------| the cool kids/Like the cool 
A|---------------------------------------------------------------------------| kids 
E|---------------------------------------------------------------------------|

e|---------------------------------------------------------------------------|  
B|-------6-9-11-11-6-11-11-9-11-6---6-9-11-11-6-9-11-9-11-6------------------|
G|---------------------------------------------------------------------------| I wish that I 
D|---3-----------------------------------------------------------------------| could be like the cool kids/
A|---------------------------------------------------------------------------| cause all the cool kids they 
E|---------------------------------------------------------------------------| seem to fit in  

e|---------------------------------------------------------------------------|  
B|---6-9-11-11-6-11-11-9-11-13---11-9-11-13-11-------------------------------|
G|---------------------------------------------------------------------------| I wish that I could be like 
D|---------------------------------------------------------------------------| the cool kids/Like the cool 
A|---------------------------------------------------------------------------| kids 
E|---------------------------------------------------------------------------|

e|---------------------------------------------------------------------------|  
B|-------6-9-11-11-6-11-11-9-11-6---6-9-11-11-6-9-11-9-11-6------------------|
G|---------------------------------------------------------------------------| I wish that I 
D|---3-----------------------------------------------------------------------| could be like the cool kids/
A|---------------------------------------------------------------------------| cause all the cool kids they 
E|---------------------------------------------------------------------------| seem to get it  

e|---------------------------------------------------------------------------|  
B|---6-9-11-11-6-11-11-9-11-13---11-9-11-13-11-------------------------------|
G|---------------------------------------------------------------------------| I wish that I could be like 
D|---------------------------------------------------------------------------| the cool kids/Like the cool 
A|---------------------------------------------------------------------------| kids 
E|---------------------------------------------------------------------------|


e|---------------------------------------------------------------------------| OUTRO
B|-------9-8-6-4---------9-8-6-4---------9-8-6-4-----------------------------|
G|---------------5---------------3---------------5---------------------------| Ooh ooh ooh ooh/
D|---3---------------1---------------3---------------------------------------| Ooh ooh ooh ooh/
A|---------------------------------------------------------------------------| Ooh ooh ooh ooh 
E|---------------------------------------------------------------------------|

e|---------------------------------------------------------------------------| 
B|---9---9-11-8--------------------------------------------------------------|
G|-----8---------------------------------------------------------------------| Like the cool kids 
D|----------------6-8-3------------------------------------------------------|
A|---------------------------------------------------------------------------|
E|---------------------------------------------------------------------------|


************************************

| /        Slide up
| -        No pause 
| ---      Slight pause 
| ------   Longer pause 

************************************

            
            
Suggest correction
Creating personal tab
Creating personal tab
You can edit any tab online and save it as your Personal.

You can edit, replace or remove any tab part or add personal notes – all changes will be seen only by you.

Personal tabs can be accessed anytime from any device, even offline.
Learn more »
Give kudos to tab author, rate the tab!
1 2 3 4 5
comments
print report bad tab
guest
You may want to rate the tab now too:
select rating
Wanna post a correction for this tab? Suggest correction