Oops, an error
Loading. Please wait.

Barcelona tab

version 1
version 1

Whole song

  • This is how Ed plays it with the chord variations and rhythmic chord changes.
  • This tuning might sound better and be easier to pl... Show more

Interactive

20,026 views 210 this week
no commentswrite comment
1 2 3 4 5
x 20
add to favorites
×
Save as Personal and add changes to this tab that will be seen only by you. Learn more ›
×
You can save this tab as Personal to edit and correct it or add notes. All changes will be seen only by you. Learn more »
launch autoscroll
font size
0
reset
how to read this tab
guitar tuner
edit
Autoscroll
slow
fast
+/-
esc
set tempo
stop
---------------------------------------------------------------------------
                            Ed Sheeran - Barcelona
----------------------------------------------------------------------------
Tabbed by: SN 4th march '17 
Email: vns24847@gmail.com

Tuning:EADGBe
Capo: 1st Fret

C=      C*=      Am=       F=      G=
e|-0-|  e|-3-|   e|-0-|   e|-1-|   e|-3-|
B|-1-|  B|-5-|   B|-1-|   B|-1-|   B|-3-|
G|-0-|  G|-5-|   G|-2-|   G|-2-|   G|-4-|
D|-2-|  D|-5-|   D|-2-|   D|-3-|   D|-5-|
A|-3-|  A|-3-|   A|-0-|   A|-3-|   A|-5-|
E|-0-|  E|-x-|   E|-0-|   E|-1-|   E|-3-|



Intro, verse and chorus riff (The "C*C*C*" in the end just represents several up and down strums)

  C           Am       G       F  C*C*C*   
e|-----1--0--------------------x--x--------|
B|-----1--1------3--1------1-0-1--5--------|
G|-----0--0------2--2------0-0-2--5--------|
D|-----2--2------2--2------0-0-3--5--------|
A|-3-3-------0-0---------------3--3--------|
E|---------------------3-3-----1--x--------|

  C           Am       G       F     
e|-----1--0--------------------x------------|
B|-----1--1------3--1------1-0-1------------|
G|-----0--0------2--2------0-0-2------------|
D|-----2--2------2--2------0-0-3------------|
A|-3-3-------0-0---------------3------------|
E|---------------------3-3-----1------------|


[PRE-CHORUS] 
                
  You     and I we’re flying on an aeroplane tonight
  F       G           Am           C           
e|---1--0----0-0----------0-0---------0-0-------------|
B|---1--1----3-1----------1-1---------1-1-------------|
G|---2--2----0-0----------2-2---------2-2-------------|
D|---3--3----0-0--------------------------------------|
A|-3-3--3------------0-0----------3-3-----------------|
E|--------3-3-----------------------------------------|


We’re     going      somewhere where the sun is shining bright
  F       G           Am           C           
e|---1--0----0-0----------0-0---------0-0-------------|
B|---1--1----3-1----------1-1---------1-1-------------|
G|---2--2----0-0----------2-2---------2-2-------------|
D|---3--3----0-0--------------------------------------|
A|-3-3--3-x----------0-0----------3-3-----------------|
E|--------3-3-----------------------------------------|
                         
               
  Just    close your  eyes and let’s  pretend we’re dancing in the street
  F       G           Am           C                F                G G G
e|---1--0----0-0----------0-0-0--------0-0-0-------|-1-1-0-1----------x-x-x---|
B|---1--1----3-1----------1-1-1--------1-1-1-------|-1-1-1-1----------3-3-3---|
G|---2--2----0-0----------2-2-2--------2-2-2-------|-2-2-2-2----------4-4-4---|
D|---3--3----0-0-----------------------------------|-3-3-3-3----------5-5-5---|
A|-3-3--3-x----------0-0----------3-3--------------|-3-3-3-3----------5-5-5---|
E|--------3-3--------------------------------------|-x-x-x-x----------3-3-3---|

x = mute string
\ = slide downwards

please rate and comment! 

            
            
Suggest correction
Creating personal tab
Creating personal tab
You can edit any tab online and save it as your Personal.

You can edit, replace or remove any tab part or add personal notes – all changes will be seen only by you.

Personal tabs can be accessed anytime from any device, even offline.
Learn more »
comments
print report bad tab
guest
You may want to rate the tab now too:
select rating
Wanna post a correction for this tab? Suggest correction