Oops, an error
Loading. Please wait.

Castle On The Hill bass

version 2
version 2

Whole song

Interactive

5,446 views 66 this week
2 commentsread comments
1 2 3 4 5
x 17
add to favorites
×
Save as Personal and add changes to this tab that will be seen only by you. Learn more ›
×
You can save this tab as Personal to edit and correct it or add notes. All changes will be seen only by you. Learn more »
launch autoscroll
font size
0
reset
guitar tuner
edit
Autoscroll
slow
fast
+/-
esc
set tempo
stop
[Verse]
G|-------------------------------------|
D|-12-12---4-5-5---5-9-9---9-7-7---11--|
A|-------------------------------------| x4
E|-------------------------------------|

[Pre-Chorus]
G|---------------------------------------------------------------------------|
D|---------------------------------------------------------------------------|
A|--------------------------4-5--5-5--5-5------------------------------------| x2
E|-3--3-3--3-3--5--5-5--5-5---------------5-3--3-3--3-3----------------------|

G|---------------------------------------------------------------------------|
D|---------------------------------------------------------------------------|
A|---------------------------------------------------------------------------|
E|-3--3-3--3-3--5------------------------------------------------------------|

[Chorus]
G|-------------------------------------|
D|-12-12---4-5-5---5-9-9---9-7-7---11--|
A|-------------------------------------| x4
E|-------------------------------------|

[Verse]
G|-------------------------------------|
D|-12-12---4-5-5---5-9-9---9-7-7---11--|
A|-------------------------------------| x4
E|-------------------------------------|

[Pre-Chorus]

[Chorus]
G|-------------------------------------|
D|-12-12---4-5-5---5-9-9---9-7-7---11--|
A|-------------------------------------| x6
E|-------------------------------------|

[Bridge]
G|-------------------------------------|
D|-------------------------------------|
A|-------------------------------------| x4
E|-10------2-3-----3-7------7-5----9---|

[Pre-Chorus]
REST

[Chorus]
G|-------------------------------------|
D|-12-12---4-5-5---5-9-9---9-7-7---11--|
A|-------------------------------------| x6
E|-------------------------------------|

            
            
Suggest correction
Creating personal tab
Creating personal tab
You can edit any tab online and save it as your Personal.

You can edit, replace or remove any tab part or add personal notes – all changes will be seen only by you.

Personal tabs can be accessed anytime from any device, even offline.
Learn more »
comments
print report bad tab
2 comments total.
0 reply
seanhinder 10 Feb 09, 2017 10:53 PM

this is perfect thanks

0 reply
vogesel 10 Sep 26, 2017 01:18 AM

funky yeah !

guest
You may want to rate the tab now too:
select rating
Wanna post a correction for this tab? Suggest correction