Oops, an error
Loading. Please wait.

Chasing Cars tab

4,828 views 27 this week
no commentswrite comment
1 2 3 4 5
x 7
add to favorites
×
Save as Personal and add changes to this tab that will be seen only by you. Learn more ›
×
You can save this tab as Personal to edit and correct it or add notes. All changes will be seen only by you. Learn more »
launch autoscroll
font size
0
reset
how to read this tab
guitar tuner
edit
Autoscroll
slow
fast
+/-
esc
set tempo
stop
Ed Sheeran's version of Chasing Cars
Chasing Cars by Snow Patrol
In the 2012 iTunes Festival on YouTube

Capo 2

Everything is relative to capo. 

e|---------------------------------------------------------------------------|
B|---------------------------------------------------------------------------|
G|--4-4-4-4-4-4-4-4-2-2-2-2-2-2-2-2-5-5-5-5-5-5-5-5-4-4-4-4-4-4-4-4----------|
D|--5-5-5-5-5-5-5-5-4-4-4-4-4-4-4-4-7-7-7-7-7-7-7-7-5-5-5-5-5-5-5-5----------|
A|---------------------------------------------------------------------------|
E|---------------------------------------------------------------------------|

Then i loop this over it. It is the same thing just higher and alternating notes. It makes it sound nice. 

e|----7---7---7---7---5---5---5---5---8---8---8---8---7---7---7---7----------|
B|--8---8---8---8---7---7---7---7---10--10--10--10--8---8---8---8------------|
G|---------------------------------------------------------------------------|
D|---------------------------------------------------------------------------|
A|---------------------------------------------------------------------------|
E|---------------------------------------------------------------------------|

[Verse 1]
G           D/F#
We'll do it all 
      Cadd9
Everything 
       G
On our own 

[Verse 2]
G   D/F#
We don't need 
     Cadd9
Anything 
      G
Or anyone

[Chorus 1]
G
If I lay here 
          D/F#
If I just lay here 
              Cadd9                          G
Would you lie with me and just forget the world? 

[Verse 3]
G              D/F#
I don't quite know 
        Cadd9
How to say 
       G
How I feel 

[Verse 4]
G            D/F#
Those three words 
              Cadd9
Are said too much 
             G
They're not enough 


[Chorus 2]
G
If I lay here 
          D/F#
If I just lay here 
              Cadd9                            G
Would you lie with me and just forget the world? 

G
Forget what we're told 
              D/F#
Before we get too old 
           Cadd9                        G
Show me a garden that's bursting into life 

[Verse 5]
G             D/F#        
Let's waste time 
         Cadd9
Chasing cars 
           G
Around our heads 

[Verse 6]
 G        D/F#
I need your grace 
           Cadd9
To remind me 
           G   
To find my own 

[Chorus 3]
G
If I lay here 
          D/F#
If I just lay here 
               C                          G
Would you lie with me and just forget the world? 

G
Forget what we're told 
              D/F#
Before we get too old 
           C                           G  
Show me a garden that's bursting into life 

     G
All that I am 
           D/F#
All that I ever was 
                 Cadd9             G
Is here in your perfect eyes, they're all I can see 

        G
I don't know where 
                D/F#
Confused about how as well 
               Cadd9                             G
Just know that these things will never change for us at all 

G
If I lay here 
     D/F#
If I just lay here  
              Cadd9                       G 
Would you lie with me and just forget the world?






If you have any questions, please leave them in the comments below. Hope you like it! :)

            
            
Suggest correction
Creating personal tab
Creating personal tab
You can edit any tab online and save it as your Personal.

You can edit, replace or remove any tab part or add personal notes – all changes will be seen only by you.

Personal tabs can be accessed anytime from any device, even offline.
Learn more »
comments
print report bad tab
guest
You may want to rate the tab now too:
select rating
Wanna post a correction for this tab? Suggest correction