Oops, an error
Loading. Please wait.
We have an official Dive tab made by UG professional guitarists. Check out the tab »
×

Dive chords

version 6
version 6

Whole song

  • Simplified playing by adding capo as shown, correc... Show more
  • Capo 3 for easier, better sounding chords.
  • This tab shows the entire song, not only chords, b... Show more
  • Easier for beginners and easier chords.
  • This is a simplified version with capo and easier strum pattern.

Interactive

Video

46,120 views 879 this week
3 commentsread comments
1 2 3 4 5
x 14
add to favorites
×
Save as Personal and add changes to this tab that will be seen only by you. Learn more ›
×
You can save this tab as Personal to edit and correct it or add notes. All changes will be seen only by you. Learn more »
launch autoscroll
font size
0
reset
transpose
0
reset
simplify chords
display chords
guitar tuner
edit
Autoscroll
slow
fast
+/-
esc
set tempo
stop
Author
Difficulty
intermediate
About this tab version
This tab shows the entire song, not only chords, but also individual notes. There is also a fully tabbed guitar solo.
Strumming
There is no strumming pattern for this song yet. and get +5 IQ
[Intro]
       E        E             C#m7       A  B         Well maybe I came...
e|-----7--|-----7----------|----4--|---5---2----|---------------------------------|
B|-----9--|-----9----------|----5--|---5---4----|---------------------------------|
G|-----9--|-----9--------4-|----4--|---5---4----|---------------------------------|
D|-----9--|-----9---4/6----|----6--|---7---4----|------6--7-----------------------|
A|-----7--|-----7----------|-4--4--|---7---2----|---------------------------------|
E|--0--0--|--0--0----------|-------|---5--------|---------------------------------|

(Continues throughout entire verse)
[Verse 1]
        E
Maybe I came on too strong
        C#m7             A  B
Maybe I waited too long
         E
Maybe I played my cards wrong

Oh just a little bit wrong
    C#m7  A B
Baby I-I-I apologise for it

[Pre-chorus]
A
I could fall or I could fly
C#m7
Here in your aeroplane
G#m7
I could live, I could die
A
Hanging on the words you say
A
I've been known to give my all
C#m7
And jumping in harder than
B 
Ten thousand rocks on the lake
(Play for last line...)
e|--2--2--2--2--2--2-------|
B|--4--4--4--4--4--4-------|
G|--4--4--4--4--4--4-------|
D|--4--4--4--4--4--4--4----|
A|--2--2--2--2--2--2--2/12-|
E|-------------------------|

[Chorus]
e|----7---|--7-------7--|--------------4--|--5--5--x----2--2--x--|
B|----9---|---9------9--|--------------5--|--5--5--x----4--4--x--|
G|----9---|----9-----9--|-----------4--4--|--6--6--x----4--4--x--|
D|----9---|-----9----9--|----4--6---6--6--|--7-----x----4-----x--|
A|-7--7---|------7---7--|-----------4--4--|--7-----x----2-----x--|
E|-0--0---|-------0--0--|-----------------|--5-----x----------x--|

e|----7--|---7-------7--7--|-----------4--|--5--5--x----2--2--x-|-4--4--4--0-|
B|----9--|----9-----9---9--|-----------5--|--5--5--x----4--4--x-|-5--4--4--0-|
G|----9--|-----9---9----9--|--------4--4--|--6--6--x----4--4--x-|-4--4--4--1-|
D|----9--|------9-9-----9--|--4--6--6--6--|--7-----x----4-----x-|-6--4--6--2-|
A|-7--7--|--------------7--|--------4--4--|--7-----x----2-----x-|-4--2--6--2-|
E|-0--0--|--------------0--|--------------|--5-----x----------x-|-------4--0-|
 (Equivalent of chords) 
                 E
So don't call me baby
          C#m7    A  B
Unless you mean it
                  E
Don't tell me you need me
              C#m7
If you don't believe it
   A               B
So let me know the truth
 C#m7    B         G#m   E
Before I dive right into you

[Verse 2]
(Play same tab as verse 1 and intro)
         E
You're a mystery

I have travelled the world
           C#m7                A    B
And there's no other girl like you, no one
            E
What's your history?
                                    C#m7
Do you have a tendency to lead some people on?
        A           B
Cause I heard you do

[Pre-chorus]
A
I could fall or I could fly
C#m7
Here in your aeroplane
G#m7
I could live, I could die
A
Hanging on the words you say
A
I've been known to give my all
C#m7
And lie awake, every day
B
Don't know how much I can take
(Play for last line...)
e|--2--2--2--2--2--2-------|
B|--4--4--4--4--4--4-------|
G|--4--4--4--4--4--4-------|
D|--4--4--4--4--4--4--4----|
A|--2--2--2--2--2--2--2/12-|
E|-------------------------|

[Chorus]
                 E
So don't call me baby
          C#m7    A   B
Unless you mean it 
                  E
Don't tell me you need me
              C#m7
If you don't believe it
    A              B
So let me know the truth
  C#m7   B         G#m7  E
Before I dive right into you

[Solo]
e|--9--12--14b--14b--14p12------|------------------------|----------------------|
e|-------------------------14\--|--14-12----11-9----9h11-|----------------------|
B|------------------------------|--------13------11------|------9-9-9-9---9h11--|
G|------------------------------|------------------------|--9h10--9-9-9-11------|
D|------------------------------|------------------------|----------------------|
A|------------------------------|------------------------|----------------------|

E|--------------12--14b-12----|--14------------------------|--------------------|
B|----12--12h14------------14-|--14--12--------------------|--------------------|
G|--13--13--------------------|---------13-9h11--------9---|--------------------|
D|----------------------------|-----------------11-9h11----|--------------------|
A|----------------------------|----------------------------|----9-7-------------|
E|----------------------------|----------------------------|--------------------|

[Pre-chorus]
A
I could fall or I could fly
C#m7
Here in your aeroplane
G#m7
I could live, I could die
A
Hanging on the words you say
A
I've been known to give my all
C#m7
Sitting back, looking at
B
Every mess that I made
(Play for last line...)
e|--2--2--2--2--2--2-------|
B|--4--4--4--4--4--4-------|
G|--4--4--4--4--4--4-------|
D|--4--4--4--4--4--4--4----|
A|--2--2--2--2--2--2--2/12-|
E|-------------------------|

[Chorus]
                 E
So don't call me baby
           C#m7   A  B
Unless you mean it
                  E
Don't tell me you need me
             C#m7
If you don't believe it
    A              B
So let me know the truth
C#m7     B        G#m7   E
Before I dive right into you
C#m7     B        G#m7   E
Before I dive right into you
C#m7     B        G#m7   E
Before I dive right into you


************************************

| /  Slide up
| x  Dead note
| p  Pull-off
| b  Bend
| h  Hammer-on
| \  Slide down

************************************

            
            
Suggest correction
Creating personal tab
Creating personal tab
You can edit any tab online and save it as your Personal.

You can edit, replace or remove any tab part or add personal notes – all changes will be seen only by you.

Personal tabs can be accessed anytime from any device, even offline.
Learn more »
comments
print report bad tab
3 comments total.
+4 reply
Richarddrummer 10 Mar 08, 2017 05:17 AM

Check this guy amazing Guitar Lesson with Complete TABS including solo: https://youtu.be/DZ6URL4oMcA

-2 reply
HavoCentral 297 May 05, 2017 04:29 AM

Song is played with a capo

0 reply
nicosun5 52 Aug 08, 2017 04:55 AM

Where should the capo be placed?

guest
You may want to rate the tab now too:
select rating
Wanna post a correction for this tab? Suggest correction