Oops, an error
Loading. Please wait.
We have an official Dive tab made by UG professional guitarists. Check out the tab »
×

Dive solo tab

version 2
version 2

Solo

Whole song

  • This tab shows the entire song, not only chords, b... Show more
  • This tab contains a more accurate guitar solo tab ... Show more

Interactive

2,905 views 63 this week
1 commentread comment
1 2 3 4 5
x 5
add to favorites
×
Save as Personal and add changes to this tab that will be seen only by you. Learn more ›
×
You can save this tab as Personal to edit and correct it or add notes. All changes will be seen only by you. Learn more »
launch autoscroll
font size
0
reset
how to read this tab
guitar tuner
edit
Autoscroll
slow
fast
+/-
esc
set tempo
stop
Author
Difficulty
About this tab version
This is just the solo from Dive, not the entire song. Was this info helpful? Yes No
Artist: Ed Sheeran
Album: ÷
Song: Dive
Tuning: Standard


e|------12-14b16-14b16-14b16r14p12-----------------------------------------|
B|--/14----------------------------14~\--------/14-12----------------------|
G|---------------------------------------------------13-11-------11--------|
D|---------------------------------------------------------14-11-----------|
A|-------------------------------------------------------------------------|
E|-------------------------------------------------------------------------|

e|----------------------------------------------------12--14b16--12--------|
B|-------------------------------------12~------12h14-------------14~------|
G|---------------------------------/13-------13----------------------------|
D|--11h14-14~--14~-14-11-14/16---------------------------------------------|
A|-------------------------------------------------------------------------|
E|-------------------------------------------------------------------------|

e|-------------------------------------------------------------------------|
B|-12h14-12----------------------------------------------------------------|
G|-13----13--11p9-11~--9-----9~(LR)----------------------------------------|
D|------------------------11~(LR)------------------------------------------|
A|-------------------------------------------------------------------------|
E|-------------------------------------------------------------------------|



h - hammer on 
p - pull off 
b - bend string up
r - release bend
/ - slide up
\ - slide down
~ - vibrato
t - tap (with strumming hand)
x - muted, struck string
(LR) - Let Ring

            
            
Suggest correction
Creating personal tab
Creating personal tab
You can edit any tab online and save it as your Personal.

You can edit, replace or remove any tab part or add personal notes – all changes will be seen only by you.

Personal tabs can be accessed anytime from any device, even offline.
Learn more »
comments
print report bad tab
1 comment total.
-2 reply
Richarddrummer 10 Mar 07, 2017 05:20 AM

Check this guy amazing Guitar Lesson with Complete TABS including solo: https://youtu.be/DZ6URL4oMcA

guest
You may want to rate the tab now too:
select rating
Wanna post a correction for this tab? Suggest correction