Oops, an error
Loading. Please wait.

Dont intro tab

version 1
version 1

Intro

Whole song

  • Full fingerstyle arrangement by Andrew Foy.

Interactive

24,433 views 201 this week
2 commentsread comments
1 2 3 4 5
x 21
add to favorites
×
Save as Personal and add changes to this tab that will be seen only by you. Learn more ›
×
You can save this tab as Personal to edit and correct it or add notes. All changes will be seen only by you. Learn more »
launch autoscroll
font size
0
reset
how to read this tab
guitar tuner
edit
Autoscroll
slow
fast
+/-
esc
set tempo
stop
Author
Difficulty
intermediate
Artist/Band: Ed Sheeran
Writer: Ed Sheeran & Benjamin Levin
Album: X (2013)
Tab made by: Zacharias Lindberg

The first part of the intro is played like this. Ed Sheeran plays the song differently 
from time to time.
(Note: Sometimes Ed Sheeran plays in another tuning, like half-step down)
He then loops this and plays the next part...

[Intro version 1]
E|--------X--------X--------X--------X-----------X--------X--------X--------X-----|
B|--------X--------X--------X--------X-----------X--------X--------X--------X-----|
G|--------X--------X--------X--------X-----------X--------X--------X--------X-----|
D|--------X--------X--------X--------X-----------X--------X--------X--------X-----|
A|--9--9--X--4--4--X--5--5--X--7--7--X--7--9--9--X--4--4--X--5--5--X--7--7--X--7--|
E|--------X--------X--------X--------X-----------X--------X--------X--------X-----|

[Intro version 2]
E|--------X--------X--------X-----------------X--------X--------X--------------|
B|--------X--------X--------X-----------------X--------X--------X--------------|
G|--------X--------X--------X-----------------X--------X--------X--------------|
D|--------X--------X--------X-----------------X--------X--------X--------------|
A|--9--9--X--4--4--X--5--5--X--7--7--4-/9--9--X--4--4--X--5--5--X--7--7--4-/9--|
E|--------X--------X--------X-----------------X--------X--------X--------------|

...which goes like this.
[Intro part 2]
E|-----------------------------------------------------|
B|-----------------------------------------------------|
G|--1/2--2--2--2--2--2--2--2--2--2--2--2--2/1--1--1----|
D|--2/4--4--4--4--4--4--4--4--4--4--4--4--4/2--2--2----|
A|-----------------------------------------------------|
E|-----------------------------------------------------|

E|-/-----------------------------------------------------------------|
B|-/10--10--10--10--10--10--10--10--10--10--10--10--10--10p9--9--9---|
G|-/9*--9*--9*--9*--9*--9*--9*--9*--9*--9*--9*--9*--9*--9*-9*-9*-9*--|
D|-/11--11--11--11--11--11--11--11--11--11--11--11--11--11p9--9--9---|
A|-/-----------------------------------------------------------------|
E|-/-----------------------------------------------------------------|

In the chorus play these chords:
       E   A   D   G   B   E
F#m7 - x  (9) (11)(9)(10) (9)
C#m7 - x  (4) (6) (4) (5) (4)
Dsus - x  (5) (7')(7) (7) (5')
Esus - x  (7) (9')(9) (9) (7')

' = You don't have to play these strings in the chord

Good luck! :)

************************************

/  Slide
X  Slap the strings
p  Pull-off
*  Optional (You don't have to play this)

************************************

            
            
Suggest correction
Creating personal tab
Creating personal tab
You can edit any tab online and save it as your Personal.

You can edit, replace or remove any tab part or add personal notes – all changes will be seen only by you.

Personal tabs can be accessed anytime from any device, even offline.
Learn more »
comments
print report bad tab
2 comments total.
0 reply
Rocksmither 270 Mar 06, 2015 02:26 PM

On the intro u hammer on every other note.

0 reply
oliverquirk11 16 Aug 02, 2017 06:54 AM

The Intro is
e:-----------------------------------------------
B:-----------------------------------------------
G:-----------------------------------------------
D:-----------------------------------------------
A:[9]--9--x--0h4--4--x--0h5--5--x--0h7--7--x--7/9
E:-----------------------------------------------

Only play the first 9 the first time, as it is replaced by the 9 which you slide to at the end

h = hammer on
x = percussive slap
/ = slide

guest
You may want to rate the tab now too:
select rating
Wanna post a correction for this tab? Suggest correction