Oops, an error
Loading. Please wait.

Eraser tab

version 1
version 1

Whole song

  • Simpler chords position on the fretboard.
  • This is the riff played throughout the song in the album version.
18,088 views 306 this week
1 commentread comment
1 2 3 4 5
x 8
add to favorites
×
Save as Personal and add changes to this tab that will be seen only by you. Learn more ›
×
You can save this tab as Personal to edit and correct it or add notes. All changes will be seen only by you. Learn more »
launch autoscroll
font size
0
reset
how to read this tab
guitar tuner
edit
Autoscroll
slow
fast
+/-
esc
set tempo
stop
About this tab version
Simpler chords position on the fretboard. Was this info helpful? Yes No
Song: Eraser
Artist: Ed Sheeran
Tabbed by: Galva94

CAPO on 4th
Listen to the song to catch the rhythm 

The song is all the same riff, with slightly variation on the stop points.
Main riff:

   E                            C              D
e|----------2-3-2-0---0-------|---0-0--0-------------2-0---|
B|------------------3-0----3~-|---1-1----3-1---x-3-3-----3-|
G|----0-0-------------0-------|-x-0-0----------x-2-2-------|
D|-0--2-2---------------------|-x-2-2----------x-0-0-------|
A|-2--2-2---------------------|-x-3-3----------------------|
E|-3b-0-0---------------------|----------------------------|


Song structure 

[Intro] 
repeat 2x

   E                            C              D
e|----------2-3-2-0---0-------|---0-0--0-------------2-0---|
B|------------------3-0----3~-|---1-1----3-1---x-3-3-----3-|
G|----0-0-------------0-------|-x-0-0----------x-2-2-------|
D|-0--2-2---------------------|-x-2-2----------x-0-0-------|
A|-2--2-2---------------------|-x-3-3----------------------|
E|-3b-0-0---------------------|----------------------------|
                                                I was born inside a...

[verse 1]

repeat 3x
   E                            C              D
e|----------2-3-2-0---0-------|---0-0--0-------------2-0---|
B|------------------3-0----3~-|---1-1----3-1---x-3-3-----3-|
G|----0-0-------------0-------|-x-0-0----------x-2-2-------|
D|-0--2-2---------------------|-x-2-2----------x-0-0-------|
A|-2--2-2---------------------|-x-3-3----------------------|
E|-3b-0-0---------------------|----------------------------|
...small town, I lost that state of mind...

repeat 1x
   E                            C              D
e|----------2-3-2-0---0-------|---0-0--0-------------------|
B|------------------3-0----3~-|---1-1----3-1---x-3-3-------|
G|----0-0-------------0-------|-x-0-0----------x-2-2--STOP-|
D|-0--2-2---------------------|-x-2-2----------x-0-0-------|
A|-2--2-2---------------------|-x-3-3----------------------|
E|-3b-0-0---------------------|----------------------------|
                                                     You know that I've got... 

repeat 3x
   E                            C              D
e|----------2-3-2-0---0-------|---0-0--0-------------2-0---|
B|------------------3-0----3~-|---1-1----3-1---x-3-3-----3-|
G|----0-0-------------0-------|-x-0-0----------x-2-2-------|
D|-0--2-2---------------------|-x-2-2----------x-0-0-------|
A|-2--2-2---------------------|-x-3-3----------------------|
E|-3b-0-0---------------------|----------------------------|
...whisky with white lies and smoke in my lungs...

[Pre chorus]
C           G               D                  Am              C
  I'm well aware of certain things that can destroy a man like me
                G                B7       B7  
  But with that said give me one more,

  Higher!


[Chorus] 

repeat 1x
   E                            C              D
e|----------2-3-2-0---0-------|---0-0--0-------------2-0---|
B|------------------3-0----3~-|---1-1----3-1---x-3-3-----3-|
G|----0-0-------------0-------|-x-0-0----------x-2-2-------|
D|----2-2---------------------|-x-2-2----------x-0-0-------|
A|----2-2---------------------|-x-3-3----------------------|
E|----0-0---------------------|----------------------------|
                             I am another one to take the sting away

repeat 3x
   E                            C              D
e|----------2-3-2-0---0-------|---0-0--0-------------2-0---|
B|------------------3-0----3~-|---1-1----3-1---x-3-3-----3-|
G|----0-0-------------0-------|-x-0-0----------x-2-2-------|
D|-0--2-2---------------------|-x-2-2----------x-0-0-------|
A|-2--2-2---------------------|-x-3-3----------------------|
E|-3b-0-0---------------------|----------------------------|
                             I am another one to take the sting away
                             I am happy on my own so here I'll stay
                        Save your loving arms for a rainy day
                       

repeat 1x
   E                            C              D
e|----------2-3-2-0---0-------|---0-0--0-------------------|
B|------------------3-0----3~-|---1-1----3-1---x-3-3-------|
G|----0-0-------------0-------|-x-0-0----------x-2-2--STOP-|
D|-0--2-2---------------------|-x-2-2----------x-0-0-------|
A|-2--2-2---------------------|-x-3-3----------------------|
E|-3b-0-0---------------------|----------------------------|
             And I'll find comfort in my pain eraser


I used to think that nothing...


[Verse 2]

repeat 1x
   E                            C              D
e|----------2-3-2-0---0-------|---0-0--0-------------2-0---|
B|------------------3-0----3~-|---1-1----3-1---x-3-3-----3-|
G|----0-0-------------0-------|-x-0-0----------x-2-2-------|
D|----2-2---------------------|-x-2-2----------x-0-0-------|
A|----2-2---------------------|-x-3-3----------------------|
E|----0-0---------------------|----------------------------|
   ...could be better than touring the world with my songs...

repeat 6x
e|----------2-3-2-0---0-------|---0-0--0-------------2-0---|
B|------------------3-0----3~-|---1-1----3-1---x-3-3-----3-|
G|----0-0-------------0-------|-x-0-0----------x-2-2-------|
D|-0--2-2---------------------|-x-2-2----------x-0-0-------|
A|-2--2-2---------------------|-x-3-3----------------------|
E|-3b-0-0---------------------|----------------------------|


repeat 1x
   E                            C              D
e|----------2-3-2-0---0-------|---0-0--0-------------------|
B|------------------3-0----3~-|---1-1----3-1---x-3-3-------|
G|----0-0-------------0-------|-x-0-0----------x-2-2--STOP-|
D|-0--2-2---------------------|-x-2-2----------x-0-0-------|
A|-2--2-2---------------------|-x-3-3----------------------|
E|-3b-0-0---------------------|----------------------------|


[Pre chorus]
C           G               D                  Am              C
  I'm well aware of certain things that can destroy a man like me
                G                B7       B7  
  But with that said give me one more,

  Higher!



[Chorus] 

repeat 5x
   E                            C              D
e|----------2-3-2-0---0-------|---0-0--0-------------2-0---|
B|------------------3-0----3~-|---1-1----3-1---x-3-3-----3-|
G|----0-0-------------0-------|-x-0-0----------x-2-2-------|
D|-0--2-2---------------------|-x-2-2----------x-0-0-------|
A|-2--2-2---------------------|-x-3-3----------------------|
E|-3b-0-0---------------------|----------------------------|
                             I am another one to take the sting away
                             I am happy on my own so here I'll stay
                      Save your loving arms for a rainy day
             And I'll find comfort in my pain eraser
             And I'll find comfort in my pain eraser                     

repeat 1x
   E                            C              D
e|----------2-3-2-0---0-------|---0-0--0-------------------|
B|------------------3-0----3~-|---1-1----3-1---x-3-3-------|
G|----0-0-------------0-------|-x-0-0----------x-2-2-------|
D|-0--2-2---------------------|-x-2-2----------x-0-0-------|
A|-2--2-2---------------------|-x-3-3----------------------|
E|-3b-0-0---------------------|----------------------------|
             And I'll find comfort in my pain eraser


[Bridge]

repeat 3x
e|----------2-3-2-0---0-------|---0-0--0-------------2-0---|
B|------------------3-0----3~-|---1-1----3-1---x-3-3-----3-|
G|----0-0-------------0-------|-x-0-0----------x-2-2-------|
D|-0--2-2---------------------|-x-2-2----------x-0-0-------|
A|-2--2-2---------------------|-x-3-3----------------------|
E|-3b-0-0---------------------|----------------------------|
                    Welcome to the new show I guess you know I've been away
                    Where I'm heading who knows My heart will stay the same
                    Welcome to the new show I guess you know I've been away
         Where I'm heading who knows 

repeat 1x
e|----------2-3-2-0---0-------|---0------------------------|
B|------------------3-0----3~-|---1------------------------|
G|----0-0-------------0-------|-x-0----STOP----------------|
D|-0--2-2---------------------|-x-2------------------------|
A|-2--2-2---------------------|-x-3------------------------|
E|-3b-0-0---------------------|----------------------------|
                                     My pain eraser


[Outro]

repeat 3x
e|----------2-3-2-0---0-------|---0-0--0-------------2-0---|
B|------------------3-0----3~-|---1-1----3-1---x-3-3-----3-|
G|----0-0-------------0-------|-x-0-0----------x-2-2-------|
D|-0--2-2---------------------|-x-2-2----------x-0-0-------|
A|-2--2-2---------------------|-x-3-3----------------------|
E|-3b-0-0---------------------|----------------------------|
             And I'll find comfort in my pain eraser

repeat 1x
e|----------2-3-2-0---0-------|---0-0--0-------------------|
B|------------------3-0----3~-|---1-1----3-1---------------|
G|----0-0-------------0-------|-x-0-0----------STOP--------|
G|----0-0-------------0-------|-x-0-0----------------------|
A|-2--2-2---------------------|-x-3-3----------------------|
E|-3b-0-0---------------------|----------------------------|
             And I'll find comfort in my pain eraser

Note: the lyrics are not perfectly aligned with the tab, but they are sung pretty fast and 
this is the best I can do.


| b     bend
| ~     let ring
| x     muted


            
            
Suggest correction
Creating personal tab
Creating personal tab
You can edit any tab online and save it as your Personal.

You can edit, replace or remove any tab part or add personal notes – all changes will be seen only by you.

Personal tabs can be accessed anytime from any device, even offline.
Learn more »
comments
print report bad tab
1 comment total.
+1 reply
Karan Menon 10 Apr 06, 2017 11:00 PM

Great tab!

guest
You may want to rate the tab now too:
select rating
Wanna post a correction for this tab? Suggest correction