Oops, an error
Loading. Please wait.

Forever tab

881 views 1 this week
no commentswrite comment
1 2 3 4 5
x 4
add to favorites
×
Save as Personal and add changes to this tab that will be seen only by you. Learn more ›
×
You can save this tab as Personal to edit and correct it or add notes. All changes will be seen only by you. Learn more »
launch autoscroll
font size
0
reset
how to read this tab
guitar tuner
edit
Autoscroll
slow
fast
+/-
esc
set tempo
stop
-------------------------------------------------------------------------------
                             FOREVER - ED SHEERAN
-------------------------------------------------------------------------------
I didn't tab this song. All credits to Shawn Parrotte from Chordistry.com

Here's a link to Shawn's youtube lesson: https://www.youtube.com/watch?v=L7f1Q6WtgiA
And a link to Ed Sheeran's performance: https://www.youtube.com/watch?v=oHsdJ5KneBU

CAPO 3rd fret
Tuning:Drop D (DADGBE)

Chords (relative to the capo):
G5 |50040x
D5 |00023x
A  |70060x
Bm |90070x

Lyrics might be wrong...

Intro/Verse/Interlude/Outro:
   G5                               D5
e|---------------------------------------------------------------------------|
B|-----------0---------------0----------------3-------------3----------------|
G|-------4-------4-------4-------4--------2-------2-----2-------2------------|
D|-----0---0---0-------0---0---0--------0---0---0-----0---0---0--------------|
A|---------------------------------------------------------------------------|
D|-5---------------5----------------0---------------0------------------------|

Chorus(x2/x3/x3: first chorus play 2 times through the fingerpicking pattern, 
                                             the next 2 choruses play 3 times)   
   G5              D5              A               Bm       A
e|---------------------------------------------------------------------------|
B|-----------0---------------0---------------0-------------------------------|
G|-------4-------4-------2-------2-------6-------6-------7-------6-----------|
D|-----0---0---0-------0---0---0-------0---0---0-------0-------0-------------|
A|---------------------------------------------------------------------------|
D|-5---------------0---------------7---------------9-------7-----------------|

Post-Chorus(play this after every chorus):
   G5              D5
e|---------------------------------------------------------------------------|
B|-----------0---------------3---------------3-------------------------------|
G|-------4-------4-------2-------2-------2-------2---------------------------|
D|-----0---0---0-------0---0---0-------0---0---0-----------------------------|
A|---------------------------------------------------------------------------|
D|-5---------------0---------------0-----------------------------------------|

INTRO

G5             D5
Oooh darlin'
G5             D5
Oooh darlin'


VERSE ONE

G5                      D5
  It's 4 am beneath the stars and the night
  G5          D5
Enjoy it... enjoy it
G5                              D5  
  The candle's lit, the room is dark, the moon is light
       G5                    D5
We can lay here... we could love here


CHORUS

G5   D5      A 
For-ever is
Bm    A    G5
All I ever want
      D5      A
So be careful
            Bm     A     G5       D5
When you're giving it to someone


INTERLUDE

G5            D5
Oooh darlin'
G5            D5
Oooh darlin'


VERSE TWO
G5                                 D5
  I brought some food, a change of clothes, a little wine
      G5                D5
and a blanket... and we used them all
G5                         D5
  I dreamt a day away on a planet full of light
    G5                        D5
and I stayed there... fell in love there


CHORUS

G5      D5         A
Perfect comes near
Bm      A        G5
Perfect just for one
G5   D5     A
For-ever is
Bm     A   G5
All I ever want
      D5      A 
So be careful
            Bm     A     G5       D5
When you're giving it to someone


INTERLUDE

G5              D5
Oooh darlin' ...hold on(?)
G5              D5
Oooh darlin' ...hold on(?)


VERSE THREE

G5                       D5
  Lying down me cheek is resting on her shoulder
          G5             D5
Play with her hair... I adore her
G5                            D5
  This is the single sweetest love I've ever known yet
        G5              D5
We can stay here... run away, dear


CHORUS

G5         D5       A
Love knows no fear
Bm      A         G5
Farther down than some
G5   D5     A 
For-ever is 
Bm     A   G5
All I ever want
      D5      A
So be careful
            Bm     A     G5      D5
When you're giving it to someone


OUTRO

G5              D5
Oooh darlin' ...hold on(?)
G5              D5
Oooh darlin' ...hold on(?)


            
            
Suggest correction
Creating personal tab
Creating personal tab
You can edit any tab online and save it as your Personal.

You can edit, replace or remove any tab part or add personal notes – all changes will be seen only by you.

Personal tabs can be accessed anytime from any device, even offline.
Learn more »
comments
print report bad tab
guest
You may want to rate the tab now too:
select rating
Wanna post a correction for this tab? Suggest correction