Oops, an error
Loading. Please wait.
We have Chord Pro version of I See Fire.
It's the closest thing you can get to the original song and it has interactive parts. Check out the tab »
×

I See Fire tab

version 4
version 4

Whole song

Video

5,266 views 27 this week
no commentswrite comment
1 2 3 4 5
x 3
add to favorites
×
Save as Personal and add changes to this tab that will be seen only by you. Learn more ›
×
You can save this tab as Personal to edit and correct it or add notes. All changes will be seen only by you. Learn more »
launch autoscroll
font size
0
reset
how to read this tab
guitar tuner
edit
Autoscroll
slow
fast
+/-
esc
set tempo
stop
-------------------------------------------------------------------------------
                             I See Fire - Ed Sheeran
-------------------------------------------------------------------------------
Tabbed by: Mats Cornelissen
E-mail: matshoi@hotmail.com

Tuning: Standard
Capo 6st fred
x = slap

e|------------------------------------------------------------------------------|
B|----------------------------------------------------------0-5-3---------------|
G|----0-2-4-2-0-0-----------------0-2-4-2-0-0-2-2-------0-2-------2---4-2-0-----|
D|--2-------------2---0-0-2-----2---------------------2-------------5-------4---|
A|------------------------------------------------------------------------------|
E|------------------------------------------------------------------------------|

e|------------------------------------------------------------------------------|
B|------------------------------------------------------------------------------|
G|------------------------------------------------------------------------------|
D|---0h2-5-4--4h5-4-2-----------------------------------------------------------|
A|-2----------------------------------------------------------------------------|
E|------------------------------------------------------------------------------|

Intro
e|-----------------------------|------------------------------------------------|
B|-5----------------3----------|------------------------------------------------|
G|-2h4p2-----0------0h2----0---|------------------------------------------------|
D|-------0h2-0h2----0------2---|-(2X)-------------------------------------------|
A|-----------3-------------2---|------------------------------------------------|
E|-0-------------x-------x-0--x|------------------------------------------------|

e|------------------------------------------------------------------------------|
B|---------3-------------------3----1-----------3---------1---2-----------------|
G|-0---0---0h2---0-----0---0---0h2--0---0---0---0h2---0---0---0---0-------------|
D|-2---0---0-----0h2---2---0---0----2---2---0---0-----2---2---0---2-------------|
A|-2---2---------3-----2---2--------0---2---2---------3---0---3---3-(Rest-2sec)-|
E|-0-x-3-x-----x-----x-0-x-3-x----x---x-0-x-3-x-----x-0-x---x---x-0-------------|
If this is to end in fire...                              |Watch the flams burn...
e|------------------------------------------------------------------------------|
B|-5----------------3-----------------------------------------------------------|
G|-2h4p2-----0------0h2----0----------------------------------------------------|
D|-------0h2-0h2----0------2----------------------------------------------------|
A|-----------3-------------2----------------------------------------------------|
E|-0-------------x-------x-0--x-------------------------------------------------|

e|--------------------------------------------------------|-----------|---------|
B|---------3-------------------3----1-----------3---------|1---2------|---------|
G|-0---0---0h2---0-----0---0---0h2--0---0---0---0h2---0---|0---0---0--|---------|
D|-2---0---0-----0h2---2---0---0----2---2---0---0-----2---|2---0---2--|-(2X)----|
A|-2---2---------3-----2---2--------0---2---2---------3---|0---3---3--|---------|
E|-0-x-3-x-----x-----x-0-x-3-x----x---x-0-x-3-x-----x-0-x-|--x---x-0-x|---------|
And if we should die tonight...                           |Watch the flames burn...

Chorus
e|-3-333333-3-333333-3-333333-3-333333-|----------------------3-333333----------|
B|-3-333333-3-333333-2-222222-3-333333-|----------------1-----3-333333----------|
G|-0-000000-0-000000-3-333333-0-000000-|----------------0-----0-000000----------|
D|-2-222222-2-222222-0-000000-2-222222-|-(3X)-Last time-2-----2-222222----------|
A|-2-222222-3-333333----------2-222222-|------play -----0-Not-2-222222----------|
E|-------------------------------------|----------------|-----------------------|
Now I See Fire...                                       (Hold 4 sec)

Play intro

e|--------------------------------------------------------|-----------|---------|
B|---------3-------------------3----1-----------3---------|1---2------|---------|
G|-0---0---0h2---0-----0---0---0h2--0---0---0---0h2---0---|0---0---0--|---------|
D|-2---0---0-----0h2---2---0---0----2---2---0---0-----2---|2---0---2--|-(2X)----|
A|-2---2---------3-----2---2--------0---2---2---------3---|0---3---3--|---------|
E|-0-x-3-x-----x-----x-0-x-3-x----x---x-0-x-3-x-----x-0-x-|--x---x-0-x|---------|
Oh should my people fall...                               |Watch the flames burn...

Play Chorus

e|-0-000000-0-000000-3-333333-3-333333-|------0-0-0-0-0-0-0-0-0-0-0-0-3-3-3-3---|
B|-1-111111-0-000000-3-333333-2-222222-|------1-1-1-1-1-1-1-1-1-1-1-1-2-2-2-2---|
G|-0-000000-0-000000-0-000000-3-333333-|------0-0-0-0-0-0-0-0-0-0-0-0-3-3-3-3---|
D|-2-222222-2-222222-0-000000-0-000000-|-(3X)-2-2-2-2-2-2-0-0-2-2-2-2-0-0-0-0---|
A|-0-000000-2-222222-2-222222----------|------0-0-0-0-0-0-2-2-3-3-3-3-----------|
E|----------0-000000-3-333333----------|----------------------------------------|
And if the night is burning...                |And with that shadow upon...

e|-3-333333-3-333333-3-333333-3-333333-|-----------------0-000000---------------|
B|-3-333333-3-333333-2-222222-3-333333-|-----------------1-111111---------------|
G|-0-000000-0-000000-3-333333-0-000000-|-----------------0-000000---------------|
D|-2-222222-2-222222-0-000000-2-222222-|-(7X)-4 time-end-2-222222---------------|
A|-2-222222-3-333333----------2-222222-|-----------------0-000000---------------|
E|-------------------------------------|----------------------------------------|
Now I See Fire...                                      

Outro
e|-3-333333-3-33333-3-333333-0--------------------------------------------------|
B|-3-333333-3-33333-2-222222-0--------------------------------------------------|
G|-0-000000-0-00000-3-333333-0--------------------------------------------------|
D|-2-222222-2-22222-0-000000-2--------------------------------------------------|
A|-2-222222-3-33333----------2--------------------------------------------------|
E|---------------------------0--------------------------------------------------|

            
            
Suggest correction
Creating personal tab
Creating personal tab
You can edit any tab online and save it as your Personal.

You can edit, replace or remove any tab part or add personal notes – all changes will be seen only by you.

Personal tabs can be accessed anytime from any device, even offline.
Learn more »
Give kudos to tab author, rate the tab!
1 2 3 4 5
comments
print report bad tab
guest
You may want to rate the tab now too:
select rating
Wanna post a correction for this tab? Suggest correction