Oops, an error
Loading. Please wait.
We have an official Photograph tab made by UG professional guitarists. Check out the tab »
×
35,002 views 504 this week
4 commentsread comments
1 2 3 4 5
x 32
add to favorites
×
Save as Personal and add changes to this tab that will be seen only by you. Learn more ›
×
You can save this tab as Personal to edit and correct it or add notes. All changes will be seen only by you. Learn more »
launch autoscroll
font size
0
reset
how to read this tab
guitar tuner
backing track
0:00
0:00
edit
Autoscroll
slow
fast
+/-
esc
set tempo
stop
Author
Difficulty
-------------------------------------------------------------------------------
                             Photograph by Ed Sheeran Tab
-------------------------------------------------------------------------------
Hey :) This is my first tab and I figured it out for myself so if there's anything wrong please comment it 
and I'll try and fix it. Hope this helps! :D

No Capo 
Standard Tuning

[Intro]
 e|---------------------------------------------------------------------------|
 B|-----3-2-3-----------------------------------------------------------------|
 G|-------------2-0-----------------------------------------------------------|
 D|--0----------------4-----x7------------------------------------------------|
 A|---------------------------------------------------------------------------|
 E|---------------------------------------------------------------------------|


[Verse]
 e|-4-4-2-4---4-4-2-4-0-0---0-0-2-0-0-5-4-2-0---0-4-4-2-4-2-0---0-0-4-4-2-4-0-0---0-0-2-0-0-5-4-2-0-4-2-|
 B|------------------------------4-----------------------------------------------------4----------------|
 G|-----------------------------------------------------------------------------------------------------|
 D|-----------------------------------------------------------------------------------------------------|
 A|-----------------------------------------------------------------------------------------------------|
 E|-----------------------------------------------------------------------------------------------------|
  Loving can hurt, loving can hurt sometimes. But it's the only thing that I know.
  And when it gets hard, you know it can get hard sometimes. It is the only thing that makes us feel alive

[Chorus]

e|-0-0-0-0-0-0-2-4-4---0-0-0-0-0-0-2-4-4-2---0-2-7-4-4-2-2-0---7-4-4-2-2-0---0-7-4-4-2-2-0-2-|
B|-------------------------------------------------------------------------------------------|
G|-------------------------------------------------------------------------------------------|
D|-------------------------------------------------------------------------------------------|
A|-------------------------------------------------------------------------------------------|
E|-------------------------------------------------------------------------------------------|
  We keep this love in a photograph, we make these memories for ourselves. Where our eyes are never closing,
  hearts were never broken and time's forever frozen still.

                               
[Chorus]
e|-0-0-2-4-0---4-4-4-5-4-2-0-4-2---4-4-4-5-4-2-0-4-0---4-4-5-4-2-0-0---0-0-0-0-0-|
B|--------------------------------------------------------------------------4--|
G|-----------------------------------------------------------------------------|
D|-----------------------------------------------------------------------------|
A|-----------------------------------------------------------------------------|
E|-----------------------------------------------------------------------------|
  So you can keep me, inside the pocket of your ripped jeans. Holding me closer 'till our eyes meet
                   You won't ever be alone. Wait for me to come home


[Verse]
e|-4-4-2-4---4-4-2-4-0-0--0-0-2-0-0-5-4-2-0---0-0-4-4-2-4-2-0--0-0-0-0-0-4-4-2-4-0-0--0-0-2-0-0-5-4-2-0-4-2-|
B|---------------------------4-----------------------------------------------------------4------------------|
G|----------------------------------------------------------------------------------------------------------|
D|----------------------------------------------------------------------------------------------------------|
A|----------------------------------------------------------------------------------------------------------|
E|----------------------------------------------------------------------------------------------------------|
  Loving can heal, loving can mend your soul. It is the only thing that I know, know.I swear it will get 
  easier, remember that with every piece of ya. And it's the only thing we take with us when we die.

[Chorus]

e|-0-0-0-0-0-0-2-4-4---0-0-0-0-0-0-2-4-4-2---0-2-7-4-4-2-2-0---7-4-4-2-2-0---0-7-4-4-2-2-0-2-|
B|-------------------------------------------------------------------------------------------|
G|-------------------------------------------------------------------------------------------|
D|-------------------------------------------------------------------------------------------|
A|-------------------------------------------------------------------------------------------|
E|-------------------------------------------------------------------------------------------|
  We keep this love in a photograph, we make these memories for ourselves. Where our eyes are never closing,
  hearts were never broken and time's forever frozen still.

[Chorus]
e|-0-0-2-4-0---4-4-4-5-4-2-0-4-2---4-4-4-5-4-2-0-4-0---4-4-5-4-2-0-0---|
B|---------------------------------------------------------------------|
G|---------------------------------------------------------------------|
D|---------------------------------------------------------------------|
A|---------------------------------------------------------------------|
E|---------------------------------------------------------------------|
  So you can keep me, inside the pocket of your ripped jeans. Holding me closer 'till our eyes meet
                        You won't ever be alone. 

e|-0-0-2-4-0---4-4-4-5-4-2-0-4-2---4-4-4-5-4-2-0-4-0---4-4-5-4-2-0-0---0-0-0-0-0-|
B|--------------------------------------------------------------------------4----|
G|-------------------------------------------------------------------------------|
D|-------------------------------------------------------------------------------|
A|-------------------------------------------------------------------------------|
E|-------------------------------------------------------------------------------|
  And if you hurt me, well that's ok baby, only words bleed. Inside these pages you just hold me, and I won't
                                 ever let you go. Wait for me to come home

e|-0-0-0-0-0--0-0-0-0-0--0-0-0-0-2--------------------------------------------------------|
B|------4----------4----------4-----------------------------------------------------------|
G|----------------------------------------------------------------------------------------|
D|----------------------------------------------------------------------------------------|
A|----------------------------------------------------------------------------------------|
E|----------------------------------------------------------------------------------------|
  Wait for me to come home x3
 
[Chorus]
e|-0-0-2-4-0-0-0-0-4-4-4-5-4-2-0-4-2---4-4-4-5-4-2-0-4-0---4-4-5-4-2-0-0---|
B|---------------------------------------------------------------------|
G|---------------------------------------------------------------------|
D|---------------------------------------------------------------------|
A|---------------------------------------------------------------------|
E|---------------------------------------------------------------------|
Oh you can fit me inside the necklace you bought when you were 16, next to your heartbeat where I should be,
                         Keep it deep within your soul

e|-0-0-2-4-0---4-4-4-5-4-2-0-4-2---4-4-4-5-4-2-0-4-0---4-4-5-4-2-0-0---|
B|---------------------------------------------------------------------|
G|---------------------------------------------------------------------|
D|---------------------------------------------------------------------|
A|---------------------------------------------------------------------|
E|---------------------------------------------------------------------|
  And if you hurt me, well that's ok baby, only words bleed. Inside these pages you just hold me, and I won't
                                 ever let you go.

e|-0-0-2-4---4-4-4-5-4-2-0-4-2---4-4-4-5-4-2-0-4-0---4-4-4-5-4-2-0-0---0-0-0-0-0------|
B|--------------------------------------------------------------------------4---------|
G|------------------------------------------------------------------------------------|
D|------------------------------------------------------------------------------------|
A|------------------------------------------------------------------------------------|
E|------------------------------------------------------------------------------------|
  When I'm away, I will remember how you kissed me, under the lamp post back on 6th street, hearing you
  whisper through the phone, wait for me to come home


************************************

I hope this helped you and comment any other tabs or chords you want me to give you :)



************************************

| x  Dead note

************************************

            
            
Suggest correction
Creating personal tab
Creating personal tab
You can edit any tab online and save it as your Personal.

You can edit, replace or remove any tab part or add personal notes – all changes will be seen only by you.

Personal tabs can be accessed anytime from any device, even offline.
Learn more »
comments
print report bad tab
4 comments total. Showing first comments.
+1 reply
justinkwok1337 73 Mar 19, 2016 06:59 AM, edited at 11:00 am

For "So you can keep me" part, you could play this .e|-0-0-2-4-0-B|-----------0

0 reply
saipadmapriya 10 Dec 26, 2016 04:28 AM

There is a sudden shift in scale after the intro, I don't think it is a part of the original song? Correct me if I'm wrong but, everything from the verse must be shifted down by two semitones

0 reply
saipadmapriya 10 Dec 26, 2016 05:02 AM

There is a sudden shift in scale after the intro, I don't think it is a part of the original song? Correct me if I'm wrong but, everything from the verse must be shifted down by two semitones

guest
You may want to rate the tab now too:
select rating
Wanna post a correction for this tab? Suggest correction