Oops, an error
Loading. Please wait.

Runaway tab

version 1
version 1

Whole song

  • This is for live performance with loop station.

Interactive

316 views 21 this week
1 commentread comment
1 2 3 4 5
2 more votes to show rating
add to favorites
×
Save as Personal and add changes to this tab that will be seen only by you. Learn more ›
×
You can save this tab as Personal to edit and correct it or add notes. All changes will be seen only by you. Learn more »
launch autoscroll
font size
0
reset
how to read this tab
guitar tuner
edit
Autoscroll
slow
fast
+/-
esc
set tempo
stop
About this tab version
This is for live performance with loop station. Was this info helpful? Yes No
This is for performances with loop station - https://www.youtube.com/watch?v=eWR2dHZRvus

[First layer]
e|-----x-----------------x---------------------------------------------------|
B|-----x-----------------x---------------------------------------------------|
G|-----x-------0------2--x--2------------------------------------------------|
D|-----x-2-----0h2----1--x--1------------------------------------------------|
A|-----x-------3------2--x---------------------------------------------------|
E|---0-x-----------------x-----0---------------------------------------------|
 
[Second]
e|---------------------------------------------------------------------------|
B|---------0-----------------------------------------------------------------|
G|---------0h2p0-------------------------------------------------------------|
D|---------------------------------------------------------------------------|
A|---------------------------------------------------------------------------|
E|---------------------------------------------------------------------------|

[Third] 
(starts when he does the voice layers)(the bend is really subtle)
e|---------------------------------------------------------------------------|
B|-----0---------------------------------------------------------------------|
G|-----2h4p2p0-------2bp0----------------------------------------------------|
D|--------------2p0--------h2------------------------------------------------|
A|---------------------------------------------------------------------------|
E|---------------------------------------------------------------------------|

[Voice] 
(if you want to know what notes he sings)
e|-------------------------------------------------------------------------|
B|--------------------------5-4--------------------------------------------|
G|-------------------------------------------------------------------------|
D|--------2-1---------5-4--------------------------------------------------|
A|--3-2--------------------------------------------------------------------|
E|-------------------------------------------------------------------------|

[Pre-Chorus]
Am7 - Em - G - D (x3)

B7
It's been a long day
                             
Thumb on side of the roadway, but

B7 in this shape
e|---------------------------------------------------------------------------|
B|---------------------------------------------------------------------------|
G|--2------------------------------------------------------------------------|
D|--1------------------------------------------------------------------------|
A|--2------------------------------------------------------------------------|
E|---------------------------------------------------------------------------|

************************************

| bp  Bend and pull-off
| x   Dead note
| h   Hammer-on
| p   Pull-off
| r   Release
| b   Bend

************************************

            
            
Suggest correction
Creating personal tab
Creating personal tab
You can edit any tab online and save it as your Personal.

You can edit, replace or remove any tab part or add personal notes – all changes will be seen only by you.

Personal tabs can be accessed anytime from any device, even offline.
Learn more »
Give kudos to tab author, rate the tab!
1 2 3 4 5
comments
print report bad tab
1 comment total.
0 reply
Tykinator 10 Dec 30, 2017 11:19 AM

Great! Thanks so much for tabbing!

guest
You may want to rate the tab now too:
select rating
Wanna post a correction for this tab? Suggest correction