Oops, an error
Loading. Please wait.
We have an official Shape Of You tab made by UG professional guitarists. Check out the tab »
×

Shape Of You intro tab

version 2
version 2

Intro

Whole song

  • A fairly straight forward fingerstyle interpretati... Show more
  • Standard Tuning. No capo necessary.
  • This tab of Shape of You by Ed Sheeran follows his... Show more
  • Easy to follow, fully structured with time frames.
  • Fingerstyle arrangement. Taken from this youtube v... Show more
  • Full fingerstyle arrangement by Andrew Foy.
  • This version includes all parts of the song, inclu... Show more
12,289 views 171 this week
no commentswrite comment
1 2 3 4 5
x 23
add to favorites
×
Save as Personal and add changes to this tab that will be seen only by you. Learn more ›
×
You can save this tab as Personal to edit and correct it or add notes. All changes will be seen only by you. Learn more »
launch autoscroll
font size
0
reset
how to read this tab
guitar tuner
backing track
0:00
0:00
edit
Autoscroll
slow
fast
+/-
esc
set tempo
stop
[Intro]
e|----------------------------|
B|2--5--2-2--5--2-2-5--2-4-2-0|
G|----------------------------|
D|----------------------------| 
A|----------------------------|
E|----------------------------|

e|----------------------------|
B|2--5--2-2--5--2-2-5--2-4-2-0|
G|----------------------------|
D|----------------------------| 
A|----------------------------|
E|----------------------------|

e|----------------------------|
B|2--5--2-2--5--2-2-5--2-4-2-0|
G|----------------------------|
D|----------------------------| 
A|----------------------------|
E|----------------------------|

e|----------------------------|
B|2--5--2-2--5--2-2-5--2-4-2-0|
G|----------------------------|
D|----------------------------| 
A|----------------------------|
E|----------------------------|

            
            
Suggest correction
Creating personal tab
Creating personal tab
You can edit any tab online and save it as your Personal.

You can edit, replace or remove any tab part or add personal notes – all changes will be seen only by you.

Personal tabs can be accessed anytime from any device, even offline.
Learn more »
comments
print report bad tab
guest
Wanna post a correction for this tab? Suggest correction