Oops, an error
Loading. Please wait.
We have an official Shape Of You tab made by UG professional guitarists. Check out the tab »
×

Shape Of You tab

version 4
version 4

Whole song

  • A fairly straight forward fingerstyle interpretati... Show more
  • Standard Tuning. No capo necessary.
  • This tab of Shape of You by Ed Sheeran follows his... Show more
  • Easy to follow, fully structured with time frames.
  • Fingerstyle arrangement. Taken from this youtube v... Show more
  • Full fingerstyle arrangement by Andrew Foy.
  • This version includes all parts of the song, inclu... Show more

Video

  • Easy to follow, high quality video lesson.
  • This is Mattias Krantz fingerstyle guitar tutorial... Show more
  • This is an depth video guitar lesson for the acous... Show more
65,062 views 54 this week
1 commentread comment
1 2 3 4 5
x 12
add to favorites
×
Save as Personal and add changes to this tab that will be seen only by you. Learn more ›
×
You can save this tab as Personal to edit and correct it or add notes. All changes will be seen only by you. Learn more »
launch autoscroll
font size
0
reset
how to read this tab
guitar tuner
backing track
0:00
0:00
edit
Autoscroll
slow
fast
+/-
esc
set tempo
stop
Author
Difficulty
ED SHEERAN - SHAPE OF YOU (MELODY)

Intro from: https://tabs.ultimate-guitar.com/e/ed_sheeran/shape_of_you_intro_ver2_tab.htm

Standard Tuning
No Capo

[Intro]

e|----------------------------|
B|2--5--2-2--5--2-2-5--2-4-2-0|
G|----------------------------|    (x4)
D|----------------------------| 
A|----------------------------|
E|----------------------------|

[Verse 1]

e|-------------------------------|-----------|---------------------------------|-------------|
B|-------------------------------|-----------|---------------------------------|-------------|
G|-------------------------------|-----------|-4-------------------------------|-------------|
D|-2--2-2-2-2--2--2-2-2-2--2-2-2-|-2-2-4h6-6-|---4--6-6--6-6-4--4-4--4-4--4--4-|-4-4-4-6-2---|
A|-------------------------------|-----------|---------------------------------|-----------4-|
E|-------------------------------|-----------|---------------------------------|-------------|
Club isn't the best place to find a lover 
So the bar is where I go
Me and my friends at the table doing shots
Drinking fast and then we talk slow

e|----------------------------------------|------------------|
B|----------------------------------------|------------------|
G|----------------------------------------|-4----------------|
D|-4-4-4--4-6-6--6-6-6--6--6-6-6-6--6-6-6-|---6-6-4-4--6-4\2-|
A|----------------------------------------|------------------|
E|----------------------------------------|------------------|
And you come over and start a conversation with just me
And trust me I'll give it a chance now

e|---------------------------|---------------------------|
B|---------------------------|---------------------------|
G|-------4-------------------|---------------------------|
D|-2-2-2---6-6-6-4-4-4--4--4-|-4-4-4-4-2-----------------|
A|---------------------------|-------------4-------2-4-4-|
E|---------------------------|---------------4-4-4-------|
Take my hand, stop, put van the man on the jukebox
And then we'll start to dance and now I'm singing like

[Pre-Chorus]

e|---------------|-------------------------|----------------|------------------|
B|---------------|-------------------------|----------------|------------------|
G|---------------|-----------------1-------|-4--------------|------------------|
D|-----------6-4-|-2-4-6-4-2-----2---2h4---|---4-6--4-2-2---|-2-4-4-4-2-4-2----|
A|-4-4-4-2-4-----|-----------2h4---------4-|--------------4-|---------------4--|
E|---------------|-------------------------|----------------|------------------|
Girl, you know I want your love
Your love was handmade for somebody like me
Come on now, follow my lead
I may be crazy, don't mind me

e|---------------------|----------------------------------|---------------------|----------------------|
B|----------------9----|-------9-------------9------------|-12------------------|----12----9-----------|
G|------------------11-|-11-11---11-9------9---11-9h11----|----11-11--11-9-9----|-------11---11\9-9-11-|
D|----11--11-9-11------|--------------9h11-------------11-|------------------11-|-11-------------------|
A|-4-------------------|----------------------------------|---------------------|----------------------|
E|---------------------|----------------------------------|---------------------|----------------------|
Say, boy, let's not talk too much
Grab on my waist and put that body on me
Come on now, follow my lead
Come, come on now, follow my lead

[Chorus]

e|---------------------|------------------------|----------------------|------------------|
B|------9--------------|---------9--------------|---------9------------|------9-----------|
G|-9-11---11-9-9-11-11-|----9-11---11-9-9-11----|----9-11------9-11-11-|-9-11---11-9-9----|
D|---------------------|-11------------------11-|-11--------11---------|---------------11-|
A|---------------------|------------------------|----------------------|------------------|
E|---------------------|------------------------|----------------------|------------------|
I'm in love with the shape of you
We push and pull like a magnet do
Although my heart is falling too
I'm in love with your body

e|---------------------|----------------------|---------------------------------|------------------|
B|------9-12-9---------|---------9------------|-------------------9-------------|------9-----------|
G|-9-11--------11-9-11-|----9-11---11-9-11----|--------------9-11------9--11-11-|-9-11---11-9-9----|
D|---------------------|-11----------------11-|-11-11-11--11--------11----------|---------------11-|
A|---------------------|----------------------|---------------------------------|------------------|
E|---------------------|----------------------|---------------------------------|------------------|
And last night you were in my room
And now my bedsheets smell like you
Every day discovering something brand new
I'm in love with your body

e|-------------------|-------------------|
B|-----------7-7-9-9-|------9------------|
G|-------9-9---------|-9-11----11-9-9----|    (x3)
D|-11-11-------------|----------------11-|
A|-------------------|-------------------|
E|-------------------|-------------------|
Oh—I—oh—I—oh—I—oh—I
I'm in love with your body

e|---------------------------------|--------------------|
B|-------------------9-------------|------9-------------|
G|--------------9-11------9--11-11-|-9-11---11-9-9-11-11|
D|-11-11-11--11--------11----------|--------------------|
A|---------------------------------|--------------------|
E|---------------------------------|--------------------|
Every day discovering something brand new
I'm in love with the shape of you

[Verse 2]

e|-----------------------|------------------|--------------------------|----------------------|
B|-----------------------|------------------|--------------------------|----------------------|
G|-----------------------|------------------|-----4--------------------|----------------------|
D|-2-2-2-2-2--2-2--2-2-2-|-2-2-2--2-2-6-6---|-6-6---6-4-4--4-4-4-4-4-4-|-4-4-4-4-4-4--6-4-2-2-|
A|-----------------------|----------------2-|--------------------------|----------------------|
E|-----------------------|------------------|--------------------------|----------------------|
One week in we let the story begin
We're going out on our first date
You and me are thrifty, so go all you can eat
Fill up your bag and I fill up a plate

e|-------------------------------|-------------------------|
B|-------------------------------|-------------------------|
G|-------6-6-6-6-6-----4---------|-------------------------|
D|-6-6-6-----------6-6---4-4-4-4-|-4-4-4-4--4-4-4--4-4-2-4-|
A|-------------------------------|-------------------------|
E|-------------------------------|-------------------------|
We talk for hours and hours about the sweet and the sour
And how your family is doing okay

e|-------------------------|-----------------------------|
B|-------------------------|-----------------------------|
G|-------------------------|-----------------------------|
D|-2-2-2-2-2-6-6-2-2-2-6-6-|-6-4-4-4-4-4-4-2-2-----------|
A|-------------------------|-----------------------2-4-4-|
E|-------------------------|-------------------4-4-------|
Leave and get in a taxi, then kiss in the backseat
Tell the driver make the radio play, and I'm singing like

[Pre-Chorus]

e|---------------|-------------------------|----------------|------------------|
B|---------------|-------------------------|----------------|------------------|
G|---------------|-----------------1-------|-4--------------|------------------|
D|-----------6-4-|-2-4-6-4-2-----2---2h4---|---4-6--4-2-2---|-2-4-4-4-2-4-2----|
A|-4-4-4-2-4-----|-----------2h4---------4-|--------------4-|---------------4--|
E|---------------|-------------------------|----------------|------------------|
Girl, you know I want your love
Your love was handmade for somebody like me
Come on now, follow my lead
I may be crazy, don't mind me

e|---------------------|----------------------------------|---------------------|----------------------|
B|----------------9----|-------9-------------9------------|-12------------------|----12----9-----------|
G|------------------11-|-11-11---11-9------9---11-9h11----|----11-11--11-9-9----|-------11---11\9-9-11-|
D|----11--11-9-11------|--------------9h11-------------11-|------------------11-|-11-------------------|
A|-4-------------------|----------------------------------|---------------------|----------------------|
E|---------------------|----------------------------------|---------------------|----------------------|
Say, boy, let's not talk too much
Grab on my waist and put that body on me
Come on now, follow my lead
Come, come on now, follow my lead

[Chorus]

e|---------------------|------------------------|----------------------|------------------|
B|------9--------------|---------9--------------|---------9------------|------9-----------|
G|-9-11---11-9-9-11-11-|----9-11---11-9-9-11----|----9-11------9-11-11-|-9-11---11-9-9----|
D|---------------------|-11------------------11-|-11--------11---------|---------------11-|
A|---------------------|------------------------|----------------------|------------------|
E|---------------------|------------------------|----------------------|------------------|
I'm in love with the shape of you
We push and pull like a magnet do
Although my heart is falling too
I'm in love with your body

e|---------------------|----------------------|---------------------------------|------------------|
B|------9-12-9---------|---------9------------|-------------------9-------------|------9-----------|
G|-9-11--------11-9-11-|----9-11---11-9-11----|--------------9-11------9--11-11-|-9-11---11-9-9----|
D|---------------------|-11----------------11-|-11-11-11--11--------11----------|---------------11-|
A|---------------------|----------------------|---------------------------------|------------------|
E|---------------------|----------------------|---------------------------------|------------------|
And last night you were in my room
And now my bedsheets smell like you
Every day discovering something brand new
I'm in love with your body

e|-------------------|-------------------|
B|-----------7-7-9-9-|------9------------|
G|-------9-9---------|-9-11----11-9-9----|  (x3)
D|-11-11-------------|----------------11-|
A|-------------------|-------------------|
E|-------------------|-------------------|
Oh—I—oh—I—oh—I—oh—I
I'm in love with your body

e|---------------------------------|--------------------|
B|-------------------9-------------|------9-------------|
G|--------------9-11------9--11-11-|-9-11---11-9-9-11-11|
D|-11-11-11--11--------11----------|--------------------|
A|---------------------------------|--------------------|
E|---------------------------------|--------------------|
Every day discovering something brand new
I'm in love with the shape of you

[Bridge]

e|-----------------|-------------------|
B|-----------------|-------------------|
G|-----------------|-------------------|    (x4)
D|-6-6-4-2-4-2-----|-6-6-4-2-4-2-------|
A|-------------6-6-|-------------6-6-6-|
E|-----------------|-------------------|
Come on, be my baby, come on
Come on, be my baby, come on

[Chorus]

e|---------------------|------------------------|----------------------|------------------|
B|------9--------------|---------9--------------|---------9------------|------9-----------|
G|-9-11---11-9-9-11-11-|----9-11---11-9-9-11----|----9-11------9-11-11-|-9-11---11-9-9----|
D|---------------------|-11------------------11-|-11--------11---------|---------------11-|
A|---------------------|------------------------|----------------------|------------------|
E|---------------------|------------------------|----------------------|------------------|
I'm in love with the shape of you
We push and pull like a magnet do
Although my heart is falling too
I'm in love with your body

e|---------------------|----------------------|---------------------------------|------------------|
B|------9-12-9---------|---------9------------|-------------------9-------------|------9-----------|
G|-9-11--------11-9-11-|----9-11---11-9-11----|--------------9-11------9--11-11-|-9-11---11-9-9----|
D|---------------------|-11----------------11-|-11-11-11--11--------11----------|---------------11-|
A|---------------------|----------------------|---------------------------------|------------------|
E|---------------------|----------------------|---------------------------------|------------------|
And last night you were in my room
And now my bedsheets smell like you
Every day discovering something brand new
I'm in love with your body

e|-----------------|-------------------|------------------|
B|-----------------|-------------------|------9-----------|
G|-----------------|-------------------|-9-11---11-9-9----|    (x3)
D|-6-6-4-2-4-2-----|-6-6-4-2-4-2-------|---------------11-|
A|-------------6-6-|-------------6-6-6-|------------------|
E|-----------------|-------------------|------------------|
Come on, be my baby, come on
Come on, be my baby, come on
I'm in love with your body

e|---------------------------------|--------------------|
B|-------------------9-------------|------9-------------|
G|--------------9-11------9--11-11-|-9-11---11-9-9-11-11|
D|-11-11-11--11--------11----------|--------------------|
A|---------------------------------|--------------------|
E|---------------------------------|--------------------|
Every day discovering something brand new
I'm in love with the shape of you


************************************

h   Hammer-on
/   Slide up
\   Slide down

************************************

            
            
Suggest correction
Creating personal tab
Creating personal tab
You can edit any tab online and save it as your Personal.

You can edit, replace or remove any tab part or add personal notes – all changes will be seen only by you.

Personal tabs can be accessed anytime from any device, even offline.
Learn more »
comments
print report bad tab
1 comment total.
-1 reply
julien.hochard 10 Mar 07, 2017 10:05 PM

The chord I found are

C# Fm# A B

guest
You may want to rate the tab now too:
select rating
Wanna post a correction for this tab? Suggest correction