Oops, an error
Loading. Please wait.

Supermarket Flowers tab

version 1
version 1

Whole song

  • I made this so people can look at his tutorial all... Show more

Video

23,098 views 762 this week
9 commentsread comments
1 2 3 4 5
x 58
add to favorites
×
Save as Personal and add changes to this tab that will be seen only by you. Learn more ›
×
You can save this tab as Personal to edit and correct it or add notes. All changes will be seen only by you. Learn more »
launch autoscroll
font size
0
reset
how to read this tab
guitar tuner
edit
Autoscroll
slow
fast
+/-
esc
set tempo
stop
-------------
Capo 2nd fret
-------------

[Intro]

     G           G/B         Cadd9       
e|----------------------------------------------------|
B|---------3-----------3-----------3-----3------------|
G|------0-----0-----0-----0-----0-----0-----0--0h2----|
D|----------------------------------------------------| 
A|---------------2-----------3------------------------|
E|---3------------------------------------------------|
h = hammer-on

     G           G/B         Cadd9       
e|----------------------------------------------------|
B|---------3-----------3-----------3-----3-----3------|
G|------0-----0-----0-----0-----0-----0-----0-----0---|
D|----------------------------------------------------| 
A|---------------2-----------3------------------------|
E|---3------------------------------------------------|


[Verse 1]

     G           G/B         Cadd9
e|----------------------------------------------------|
B|---------3-----------3-----------3-----3-----3------|
G|------0-----0-----0-----0-----0-----0-----0-----0---|
D|----------------------------------------------------| x2
A|---------------2-----------3------------------------|
E|---3------------------------------------------------|

            G             G/B               Cadd9
I took the supermarket flowers from the windowsill
            G         G/B            Cadd9
I threw the day old tea from the cup


     Em          D           G           Cadd9
e|----------------------------------------------------|
B|---------0-----------3-----------3-----------3------|
G|------0-----0-----2-----2-----0-----0-----0-----0---|
D|---------------0------------------------------------| 
A|---------------------------------------3------------|
E|---0-----------------------3------------------------|

Em               D            G                Cadd9
   Packed up the photo albums Matthew had made


     Cadd9       D           G           
e|----------------------------------------------------|
B|---------3-----------3-----------3-----------3------|
G|------0-----0-----2-----2-----0-----0-----0-----0---|
D|---------------0------------------------------------| 
A|---3------------------------------------------------|
E|---------------------------3-----------3------------|

    Cadd9       D                    G
Memories of a life that’s been loved


     G           G/B         Cadd9
e|----------------------------------------------------|
B|---------3-----------3-----------3-----3-----3------|
G|------0-----0-----0-----0-----0-----0-----0-----0---|
D|----------------------------------------------------| x2
A|---------------2-----------3------------------------|
E|---3------------------------------------------------|

           G             G/B               Cadd9
I took the get well soon cards and stuffed animals
             G              G/B            Cadd9
I poured the old ginger beer down the sink


     Em          D           G           Cadd9
e|----------------------------------------------------|
B|---------0-----------3-----------3-----------3------|
G|------0-----0-----2-----2-----0-----0-----0-----0---|
D|---------------0------------------------------------| 
A|---------------------------------------3------------|
E|---0-----------------------3------------------------|

Em            D                 G                    Cadd9
   Dad always told me don’t you cry when you’re down


     Cadd9       D           G           
e|---------------------------------------3------------|
B|---------3-----------3-----------3-----------3------|
G|------0-----0-----2-----2-----0-----0-----0-----0---|
D|---------------0------------------------------------| 
A|---3------------------------------------------------|
E|---------------------------3------------------------|

                  Cadd9      D                 G
But mum there’s a tear every time that I blink


[Pre-Chorus 1]

     Am7         C           G           D 
e|----------------------------------------------------|
B|---------1-----------1-----------0-----------3------|
G|------0-----0-----0-----0-----0-----0-----2-----2---|
D|---------------------------------------0------------| x2
A|---0-----------3------------------------------------|
E|---------------------------3------------------------|

Am7           C              G         D
    Oh I’m in pieces it’s tearing me up but I know
Am7                C            G                     D
    A heart that’s broke is a heart that’s been loved


[Chorus 1]

     G           G/B         Cadd9       D
e|----------------------------------------------------|
B|---------3-----------3-----------3-----------3------|
G|------0-----0-----0-----0-----0-----0-----2-----2---|
D|---------------------------------------0------------| x2
A|---------------2-----------3------------------------|
E|---3------------------------------------------------|

             G          G/B  Cadd9             D
So I’ll sing Hallelujah,           you were an angel in the 
G               G/B  Cadd9             D
Shape of my mum,           when I fell down you’d be there


     Em          C           G           D
e|----------------------------------------------------|
B|---------0-----------1-----------0-----------3------|
G|------0-----0-----0-----0-----0-----0-----2-----2---|
D|---------------------------------------0------------| x2 
A|---------------3------------------------------------|
E|---0-----------------------3------------------------|

Em            C              G             D
Holding me up, spread your wings as you go 
          Em                C           G         D           
And when God takes you back, he’ll say Hallelujah, you’re home


     G           G/B         Cadd9       
e|----------------------------------------------------|
B|---------3-----------3-----------3-----3------------|
G|------0-----0-----0-----0-----0-----0-----0--0h2----|
D|----------------------------------------------------| 
A|---------------2-----------3------------------------|
E|---3------------------------------------------------|

     G           G/B         Cadd9       
e|----------------------------------------------------|
B|---------3-----------3-----------3-----3-----3------|
G|------0-----0-----0-----0-----0-----0-----0-----0---|
D|----------------------------------------------------| 
A|---------------2-----------3------------------------|
E|---3------------------------------------------------|


[Verse 2]

     G           G/B         Cadd9
e|----------------------------------------------------|
B|---------3-----------3-----------3-----3-----3------|
G|------0-----0-----0-----0-----0-----0-----0-----0---|
D|----------------------------------------------------| x2
A|---------------2-----------3------------------------|
E|---3------------------------------------------------|
 
                G               G/B              Cadd9
I fluffed the pillows, made the bed, stacked the chairs up
            G            G/B            Cadd9
Folded your nightgowns neatly in a case


     Em          D           G           Cadd9
e|----------------------------------------------------|
B|---------0-----------3-----------3-----------3------|
G|------0-----0-----2-----2-----0-----0-----0-----0---|
D|---------------0------------------------------------| 
A|---------------------------------------3------------|
E|---0-----------------------3------------------------|

Em                D                  G                Cadd9
   John said he’d drive then put his hand on my cheek


     Cadd9       D           G           
e|----------------------------------------------------|
B|---------3-----------3-----------3-----3-----3------|
G|------0-----0-----2-----2-----0-----0-----0-----0---|
D|---------------0------------------------------------| 
A|---3------------------------------------------------|
E|---------------------------3------------------------|

            Cadd9          D         G
And wiped a tear from the side of my face


[Pre-Chorus 2]

     Am7         C           G           D 
e|----------------------------------------------------|
B|---------1-----------1-----------0-----------3------|
G|------0-----0-----0-----0-----0-----0-----2-----2---|
D|---------------------------------------0------------| x2
A|---0-----------3------------------------------------|
E|---------------------------3------------------------|

Am7                 C          G              D
    And I hope that I see the world as you did cause I know
Am7             C           G                    D
    A life with love is a life that’s been lived


[Chorus 2]

     G           G/B         Cadd9       D
e|----------------------------------------------------|
B|---------3-----------3-----------3-----------3------|
G|------0-----0-----0-----0-----0-----0-----2-----2---|
D|---------------------------------------0------------| x2
A|---------------2-----------3------------------------|
E|---3------------------------------------------------|

             G          G/B  Cadd9             D
So I’ll sing Hallelujah,           you were an angel in the 
G               G/B  Cadd9             D
Shape of my mum,           when I fell down you’d be there


     Em          C           G           D
e|----------------------------------------------------|
B|---------0-----------1-----------0-----------3------|
G|------0-----0-----0-----0-----0-----0-----2-----2---|
D|---------------------------------------0------------| x2 
A|---------------3------------------------------------|
E|---0-----------------------3------------------------|

Em            C              G             D
Holding me up, spread your wings as you go 
          Em                C           G         D           
And when God takes you back, he’ll say Hallelujah, you’re home


     G           G/B         Cadd9       
e|----------------------------------------------------|
B|---------3-----------3-----------3-----3-----3------|
G|------0-----0-----0-----0-----0-----0-----0-----0---|
D|----------------------------------------------------| 
A|---------------2-----------3------------------------|
E|---3------------------------------------------------|


[Chorus 3]

     G           Bm          Cmaj7       
e|----------------------------------------------------|
B|---------0------------------------------------------|
G|------0-----0--0h2---------0------------------------|
D|---------------0-----------2------------------------| x2
A|---------------2-----------3------------------------|
E|---3------------------------------------------------|

G          Bm  Cmaj7
Hallelujah 
                         G               Bm  Cmaj7
You were an angel in the shape of my mum

     Em          C           G           D
e|----------------------------------------------------|
B|---------------------------------------3------------|
G|---0-----------0-----------0-----------2------------|
D|---2-----------2-----------0-----------0------------| 
A|---2-----------3-----------2------------------------|
E|---0-----------------------3------------------------|

                          Em            C              G             D
You got to see the person I have become, spread your wings and I know that when

     Em          C           G           D          G 
e|------------------------------------------------------|
B|---------------------------------------3--------------|
G|---0-----------0-----------0-----------2----------0---|
D|---2-----------2-----------0-----------0----------0---| 
A|---2-----------3-----------2----------------------2---|
E|---0-----------------------3----------------------3---|

 Em               C         G         D            G
God took you back, he said Hallelujah, you’re home


            
            
Suggest correction
Creating personal tab
Creating personal tab
You can edit any tab online and save it as your Personal.

You can edit, replace or remove any tab part or add personal notes – all changes will be seen only by you.

Personal tabs can be accessed anytime from any device, even offline.
Learn more »
comments
print report bad tab
9 comments total. Showing first comments.
+2 reply
stephano2011 10 Apr 04, 2017 12:05 PM

great tab

+1 reply
Rbrocksout 10 Apr 07, 2017 09:47 PM

Such a good song

+1 reply
miriana_pepe 10 Apr 13, 2017 09:20 AM

it's really good. good job

guest
You may want to rate the tab now too:
select rating
Wanna post a correction for this tab? Suggest correction