Oops, an error
Loading. Please wait.
We have an official Thinking Out Loud tab made by UG professional guitarists. Check out the tab »
×

Thinking Out Loud solo tab

version 2
version 2

Whole song

  • It's just the way I play it and it's the way Ed or... Show more
  • This is an alternative way to play this song witho... Show more
  • This tab shows a finger picking technique that is ... Show more
67,892 views 207 this week
3 commentsread comments
1 2 3 4 5
x 25
add to favorites
×
Save as Personal and add changes to this tab that will be seen only by you. Learn more ›
×
You can save this tab as Personal to edit and correct it or add notes. All changes will be seen only by you. Learn more »
launch autoscroll
font size
0
reset
how to read this tab
guitar tuner
backing track
0:00
0:00
edit
Autoscroll
slow
fast
+/-
esc
set tempo
stop
Author
Difficulty
intermediate
solo
Other version is very good, this is a little trickier 

Tempo 158 bpm

e|-------------------------------------------------------------------------|
B|-----------------7----- 7------------------------------------------------|
G|------------7----7h9-/--9b(11)---9—7h9-7-vvvvv--xx---7---7---------------|
D|--------7---7h9---------------------------------xx---7h9—7h9--7-vvv------|
A|--------7h9--------------------------------------------------------------|
E|-------------------------------------------------------------------------|


e|-------------------------------------------------------------------------|
B|----------------7----7----- 10-vv----------------10h12-10h12-vvv-10------|
G|------------7---7h9--9b(11)---—---9p7-9-7-vvvxx--------------------------|
D|--------7---7h9------------------------------xx--------------------------|
A|--------7h9--------------------------------------------------------------|
E|-------------------------------------------------------------------------|


First bend is quick and the second is slow
e|-------------------12b---10-v-v—12b (14)-----------------------------------|
B|---------------------------------------------------------------------------|
G|---------------------------------------------------------------------------|
D|---------------------------------------------------------------------------|
A|---------------------------------------------------------------------------|
E|---------------------------------------------------------------------------|

e|10---10---10---10----10---10---10--------10-------------------------------------|
B|10-h-12---10-h-12----10-h-12---10--------12-----10------------------------10-v-v|
G|------------------------------------------------9--h-11-p-9--7----9-s-11--------|
D|--------------------------------------------------------------------------------|
A|--------------------------------------------------------------------------------|
E|--------------------------------------------------------------------------------|

e|------10-10-10-------9--9--9------7-7-7-----5-5-5---3---------------------------|
B|------12-12-12------10-10-10------8-8-8-----7-7-7---5---------------------------|
G|--------------------------------------------------------------------------------|
D|--------------------------------------------------------------------------------|
A|--------------------------------------------------------------------------------|
E|--------------------------------------------------------------------------------|

********************************************

| x  Dead note
| h  Hammer-on
| p  Pull-off
| b  Bend
| /  Slide up
| v  Vibrato 

******************************************** 

            
            
Suggest correction
Creating personal tab
Creating personal tab
You can edit any tab online and save it as your Personal.

You can edit, replace or remove any tab part or add personal notes – all changes will be seen only by you.

Personal tabs can be accessed anytime from any device, even offline.
Learn more »
comments
print report bad tab
3 comments total.
+1 reply
Rocksmither 270 Dec 21, 2014 08:37 AM

Good job, but the tempo is 86 bpm not 158.

P.s. I would rate but I can't cuz I have a tab of the verse

*****. Five stars

+2 reply
Kirkiscool 2,747 Jan 13, 2015 09:48 PM

Good notice! There's actually no half time feel. It's normal time with 86 beats like you said

0 reply
d_alexthegreat 20 Mar 18, 2015 08:32 AM

Great tab! It is almost exactly like the original and more accurate than version one. Two little nit-picky changes I would put though:

1. I would put an oblique bend at the 2nd string's 10th fret (an "A" note) for the first bend (i.e. play and hold the 10th fret while bending the 3rd string's 9th fret to 11th fret). Listen carefully to the track and play that "A" note by itself on the first go, and I believe you will find it fits instead of the second string's 7th fret :D

2. Finish the descending idea down to D (i.e. end on first string's fret 2 and second string's fret 3). Maybe I am being OCD about this, but even if the track doesn't have this part, it is still a nice touch :)

Five Star tab!

guest
You may want to rate the tab now too:
select rating
Wanna post a correction for this tab? Suggest correction