Oops, an error
Loading. Please wait.

Where We Land tab

version 2
version 2

Whole song

  • This song is amazing, hope you can get it.

Interactive

976 views 18 this week
no commentswrite comment
1 2 3 4 5
x 5
add to favorites
×
Save as Personal and add changes to this tab that will be seen only by you. Learn more ›
×
You can save this tab as Personal to edit and correct it or add notes. All changes will be seen only by you. Learn more »
launch autoscroll
font size
0
reset
how to read this tab
guitar tuner
edit
Autoscroll
slow
fast
+/-
esc
set tempo
stop
About this tab version
This song is amazing, hope you can get it. Was this info helpful? Yes No
Ed Sheeran
"Where we land"


[Intro]

e|------0---------0------------0------------------2----------------------0-/----|
B|--2-----2--3-----------5-----------2----2h3-----2---------0--------2-----/----|
G|----2--------2----2-------4----4------2-------2---2-----1---1-----2-2----/-x2-|
D|-------------------------------------------------------------------------/----|
A|--0--------------------------------0---------------------------0---------/----|
E|-----------2-----------4--------------------2--------0-------------------/----|


 [Verse]

     LA       RE/FA#      MI/SOL#      LA       FA#m       MI      LA         
e|------0---------0------------0------------------2----------------------0-/----|
B|--2-----2--3-----------5-----------2----2h3-----2---------0--------2-----/----|
G|----2--------2----2-------4----4------2-------2---2-----1---1-----2-2----/-x2-|
D|-------------------------------------------------------------------------/----|
A|--0--------------------------------0---------------------------0---------/----|
E|-----------2-----------4--------------------2--------0-------------------/----|


 [HOOK]

     RE9                    MI                FA#m 
e|-----------0-------------------0--------------5-------5-------/---------------|
B|------0--------0-------------0---0---0--------5-------5-------/---------------|
G|----2---2----2---2---------1-------1--------6-------6------6--/-x3------------|
D|--0----------------------2----------------4------4-------4----/---------------|
A|--------------------------------------------------------------/---------------|
E|---------------------0----------------------------------------/---------------|

     re9                      mi
e|-----------0-------------------0----------------------------------------------|
B|------0--------0-------------0---0---0----------------------------------------|
G|----2---2----2---2---------1-------1------------------------------------------|
D|--0----------------------2----------------------------------------------------|
A|------------------------------------------------------------------------------|
E|---------------------0--------------------------------------------------------|

 
VERSE
 HOOL

/re9-mi-fa#m/x3  re9-mi (beggins strum)

 HOOK  (strum)
 HOOK

WHERE WE LAND



[INTRO]


[VERSE 1]

 /LA  RE/FA#  MI/SOL#  LA FA#m MI LA /X2
Treat me beneath this clear night sky
And I will lie with you
I start to feel those butterflies
When I'm next to you


[HOOK]

/RE9 MI FA#m/x3
 RE9 MI 
Tell me your secrets
Give me a friend
Let all the good times flood in
Do I love you?
Do I hate you?
I can't make up my mind
So let's freefall
See where we land


[INTRO]


[VERSE 2]

 /LA  RE/FA#  MI/SOL#  LA FA#m MI LA /X2
It's been this way since we were young
We'll fight and then make up
I'll breathe your air into my lungs
When I feel your touch


[HOOK]

/RE9 MI FA#m/x3
 RE9 MI 
/Tell me your secrets
Give me a friend
Let all the good times flood in
Do I love you?
Do I hate you?
I can't make up my mind
So let's freefall
And see where we land  /X2
  
THE SECOND TIME HE STARTS TO STRUM (MPM MPM MMPM) (they are all quaver)


{INTRO]

************************************

| x  Dead note
| h  Hammer-on
| /  Slide up

************************************

            
            
Suggest correction
Creating personal tab
Creating personal tab
You can edit any tab online and save it as your Personal.

You can edit, replace or remove any tab part or add personal notes – all changes will be seen only by you.

Personal tabs can be accessed anytime from any device, even offline.
Learn more »
comments
print report bad tab
guest
You may want to rate the tab now too:
select rating
Wanna post a correction for this tab? Suggest correction