Oops, an error
Loading. Please wait.

Take Me Home Tonight tab

version 1
version 1

Whole song

Interactive

36,859 views 9 this week
8 commentsread comments
1 2 3 4 5
x 4
add to favorites
×
Save as Personal and add changes to this tab that will be seen only by you. Learn more ›
×
You can save this tab as Personal to edit and correct it or add notes. All changes will be seen only by you. Learn more »
launch autoscroll
font size
0
reset
how to read this tab
guitar tuner
edit
Autoscroll
slow
fast
+/-
esc
set tempo
stop
Eddie Money - Take me home Tonight
standard tuning E-E

Intro)
---------------------------------------------------------
---------------------------------------------------------
---------------------------Keep repeating this riff------
-----8---8---4---6---------------------------------------
---8---8---4---6-----------------------------------------
-6---6---2---4-------------------------------------------


Pre-Chorus)  stay on F# 
---------------------------------------------------------
---------------------------------------------------------
---------------------------------------------------------
-4-------4-------4---------------------------------------
-4-------4-------4---------------------------------------
-2-------2-------2---------------------------------------


Chorus)
-----------------------------------------------------------------------------
-----------------------------------------------------------------------------
---6------------------------------------------------------------------------
---6---6---8---4---Repeat that 3 times, end on this---4--
---4---6---8---4----------------------------------------------------4--
-------4---6---2-----------------------------------------------------2--

Take me home tonight!!!!

*That's it, only 2 parts. the Intro is the same as the verse.
and the chorus is played serval times. P.S. crank it up......
Tony - cool@rconnect.com

            
            
Suggest correction
Creating personal tab
Creating personal tab
You can edit any tab online and save it as your Personal.

You can edit, replace or remove any tab part or add personal notes – all changes will be seen only by you.

Personal tabs can be accessed anytime from any device, even offline.
Learn more »
comments
print report bad tab
8 comments total. Showing first comments.
0 reply
ironabe 10 Dec 02, 2004 07:00 PM

nice work

0 reply
Goodfellgd6 10 Dec 31, 2005 08:58 AM

sounds good!

0 reply
bJoelFan13 226 Sep 30, 2006 06:20 AM

Intro)
--------------------------
----------------------------
----------------------------
-----8---8--8---4---6---6---
---8---8--8---4---6---6-----
-6---6------2---4-----------

Other than that this is flawless. Good job.

guest
Wanna post a correction for this tab? Suggest correction