Oops, an error
Loading. Please wait.

Hymn For The Weekend tab

version 1
version 1

Whole song

  • This arrangement is by Eddie van der Meer.

Interactive

202 views 6 this week
no commentswrite comment
1 2 3 4 5
1 last vote to show rating
add to favorites
×
Save as Personal and add changes to this tab that will be seen only by you. Learn more ›
×
You can save this tab as Personal to edit and correct it or add notes. All changes will be seen only by you. Learn more »
launch autoscroll
font size
0
reset
how to read this tab
guitar tuner
edit
Autoscroll
slow
fast
+/-
esc
set tempo
stop
About this tab version
This arrangement is by Eddie van der Meer. Was this info helpful? Yes No
Title:  Hymn for the Weekend
Artist: Eddie van der Meer
Video:  https://www.youtube.com/watch?v=48R6TGsZ8e8
Gp Version: https://tabs.ultimate-guitar.com/e/eddie_van_der_meer/hymn_for_the_weekend_guitar_pro.htm

Tuning: G# F C D# C D# (6th=G# 5th=F 4th=C 3rd=D# 2nd=C 1st=D#)

Q=100
4/4
[Intro]  Let ring throughout
D#|-5---5-----5---4---2---2-----2---2---|-4---4-----4---4---4---4-----4---4---|
 C|-0---0-----0---0---2---2-----2---2---|-0---0-----0---0---0---0-----0---0---|
D#|-------------------------------------|-------------------------------------|
 C|-------------------------------------|-0------0----------0------0----------|
 F|-3------3----------5------5----------|-------------------------------------|
G#|-------------------------------------|-------------------------------------|



D#|-5---5-----5---4---2---2-----2---2---|-4---4-----4---4---4---4-----4---4---|
 C|-0---0-----0---0---2---2-----2---2---|-0---0-----0---0---0---0-----0---0---|
D#|-------------------------------------|-------------------------------------|
 C|-------------------------------------|-0------0----------0------0----------|
 F|-3------3----------5------5----------|-------------------------------------|
G#|-------------------------------------|-------------------------------------|



D#|-5---5-----5---4---2---2-----2---2---|-4---4-----4---4---4---4-----2---2---|
 C|-0---0-----0---0---2---2-----2---2---|-0---0-----0---0---0---0-----0---0---|
D#|-------------------------------------|-------------------------------------|
 C|--------3-----------------2----------|--------0-----------------0----------|
 F|-------------------------------------|-------------------------------------|
G#|-0-----------------2-----------------|-4-----------------4-----------------|



D#|-5---5-----5---4---2---2-----2---2---|-4---4-----4---4---4---0-------0---|
 C|-0---0-----0---0---2---2-----2---2---|-0---0-----0---0---0-------2-------|
D#|-------------------------------------|-----------------------------------|
 C|--------3-----------------2----------|--------0------------------0-------|
 F|-------------------------------------|-----------------------------------|
G#|-0-----------------2-----------------|-4-----------------4-----4---------|


[Verse]N.H N.H                                    ^                        N.H N.H
D#|-------------0-------------------|-0-----------0-------0-------0---|-------------0-------------------|
 C|-0---------------2-----------2---|-------------0-----------2-------|-0---------------2-----------2---|
D#|---------12--------------2-------|---------4---4-------------------|---------12--------------2-------|
 C|-----12--------------2-----------|-----0-------------------0-------|-----12--------------2-----------|
 F|---------------------------------|---------------------------------|---------------------------------|
G#|-0---------------2---------------|-4---------------4---------------|-0---------------2---------------|


                ^                         N.H N.H                                   ^
D#|-0-----------0-------0-------0---|-------------0-------------------|-0-----------0-----------0---4/7----|
 C|-------------0-----------2-------|-0---------------2-----------2---|-------------0-------0--------------|
D#|---------4---4-------------------|---------12--------------2-------|---------4---4----------------------|
 C|-----0-------------------0-------|-----12--------------2-----------|-----0-------------------0----------|
 F|---------------------------------|---------------------------------|------------------------------------|
G#|-4---------------4---------------|-0---------------2---------------|-4---------------4------------------|


                    ^                             ^
D#|-5-----------4---4-----------4---|-------------4-------0-------0---|---------------0-------------------|
 C|-----------------2---------------|-------------0-----------2-------|-0--------(0)------2-----------2---|
D#|---------0-------2-------2-------|---------4---4-------------------|-----0----(0)--------------2-------|
 C|-----0---------------2-----------|-----0-------------------0-------|--------x--------------2-----------|
 F|---------------------------------|---------------------------------|--------x--------------------------|
G#|-0---------------2---------------|-4---------------4---------------|-0-----------------2---------------|


                ^                                                                    ^
D#|-0-----------0-------0-------0---|-------------0--------------------|-0-----------0-------0-------0---|
 C|-------------0-----------2-------|-0-------(0)------2-----------2---|-------------0-----------2-------|
D#|---------4---4-------------------|-----0---(0)--------------2-------|---------4---4-------------------|
 C|-----0-------------------0-------|-------x--------------2-----------|-----0-------------------0-------|
 F|---------------------------------|-------x--------------------------|---------------------------------|
G#|-4---------------4---------------|-0----------------2---------------|-4---------------4---------------|


                                                   ^                                        ^
D#|--------------0-------------------|-0-----------0-----------0---4/7----|-5-----------4---4-----------4---|
 C|-0-------(0)------2-----------2---|-------------0-------0--------------|-----------------2---------------|
D#|-----0---(0)--------------2-------|---------4---4----------------------|---------0-------2-------2-------|
 C|-------x--------------2-----------|-----0-------------------0----------|-----0---------------2-----------|
 F|-------x--------------------------|------------------------------------|---------------------------------|
G#|-0----------------2---------------|-4---------------4------------------|-0---------------2---------------|


[Pre-Chorus]    ^                   ^                                 ^             ^
D#|-------------4-----------------|---------------------------------|-----------------------------|
 C|-------------0-----------------|---------------------------------|-----------------------------|
D#|---------4---4-------------2---|-2h4~~~-(4)--2---0---------5/7---|-5~~~-(5)--4---2---------2---|
 C|-----0---------------0h3-------|-0------(0)----------0h3---------|------(0)------2---2h3-------|
 F|-------------------------------|---------------------------------|-0---------------------------|
G#|-4---------------4-----x-------|-4-------x-------4-----x---------|-------x-------2-----x-------|


    ^                                                                  ^
D#|--------------------------------|---------------------------------|---------------------------------|
 C|--------------------------------|---------------------------------|---------------------------------|
D#|-4~~~--(4)--2---0--(0)--0---0---|-0h2--2---2---0--0-----------2---|-2h4~~~-(4)--2---0---------5/7---|
 C|-0-----(0)---------(0)----------|------------------------0h3------|-0------(0)----------0h3---------|
 F|--------------------------------|-0------------------0------------|---------------------------------|
G#|-4------x-------4/--x-----------|----------x---------------x------|-4-------x-------4-----x---------|


    ^                             ^
D#|-----------------------------|----------------------------|----------------------------------|
 C|-----------------------------|----------------------------|----------------------------------|
D#|-5~~~-(5)--4---2---------2---|-4~~~-(4)--2---0---(0)--0-0-|-0h2-2-2-2h4-4-4-4h5-5-5-5h7-7-7--|
 C|------(0)------2---2h3-------|-0----(0)----------(0)------|---------0---------------0--------|
 F|-0---------------------------|----------------------------|-0-------x-------0-------x--------|
G#|-------x-------2-----x-------|-4-----x-------4/---x-------|----------------------------------|


[Chorus]             ^                                                                       ^
D#|-5------------4---2-----------5---|-4-----------------4---4-------0---|---------------0-------------------|
 C|-0-------(0)------2---------------|--------(0)--0--0----------2-------|-0--------(0)------2------(2)--2---|
D#|-0-------(0)-------------(2)------|--------(4)------------------------|-----0----(0)------2------(2)------|
 C|-3-p0h3---------------2--(2)------|-----0-----------------------------|--------x--------------2-----------|
 F|-3--------------------------------|-----------------------------------|--------x--------------------------|
G#|-0--------x-------2-------x-------|-4-------x---------4-------x-------|-0-----------------2-------x-------|
    ^

                                                         ^
D#|-0----------------------------------|-5-----------4---2-----------5---|-4-----------------4---4-------0---|
 C|--------(0)-------0------0------0---|-------(0)-------2---------------|--------(0)--0--0----------2-------|
D#|--------(4)-------4------4------4---|-------(0)--------------(2)------|--------(4)------------------------|
 C|-----0---------0--0------0------0---|-----3---------------2--(2)------|-----0-----------------------------|
 F|------------------------------------|---------------------------------|-----------------------------------|
G#|-4-------x---4----x-p0h4-x-p0h4-x---|-0------x--------2-------x-------|-4-------x---------4-------x-------|

 
                      ^
D#|---------------0------------------|-0----------------------------------|
 C|-0--------(0)------2------(2)--2--|--------(0)-------0------0------0---|
D#|-----0----(0)------2------(2)-----|--------(4)-------4------4------4---|
 C|--------x--------------2----------|-----0---------0--0------0------0---|
 F|--------x-------------------------|------------------------------------|
G#|-0---------x-------2-------x------|-4-------x---4----x-p0h4-x-p0h4-x---|


[Verse 2]
D#|-5--5---5--4--2--2---2--2---|-4--4-----4--4--4--4-----2---2--|-5---5-----5---4---2---2-----2---2--|
 C|-0--0---0--0--2--2---2--2---|-0--0-----0--0--0--0-----0---0--|-0---0-----0---0---2---2-----2---2--|
D#|----------------------------|--------------------------------|------------------------------------|
 C|------3------------2--------|-------0--------------0---------|--------3-----------------2---------|
 F|----------------------------|--------------------------------|------------------------------------|
G#|-0------------2-------------|-4--------------4---------------|-0-----------------2----------------|


                                          N.H N.H                                    ^
D#|-4---4-----4---4---4---0-------0--|-------------0-------------------|-0-----------0-------0-------0---|
 C|-0---0-----0---0---0-------2------|-0---------------2-----------2---|-------------0-----------2-------|
D#|----------------------------------|---------12--------------2-------|---------4---4-------------------|
 C|--------0------------------0------|-----12--------------2-----------|-----0-------------------0-------|
 F|----------------------------------|---------------------------------|---------------------------------|
G#|-4-----------------4-----4--------|-0---------------2---------------|-4---------------4---------------|


       N.H N.H                                    ^                        N.H N.H
D#|-------------0-------------------|-0-----------0-------0-------0---|-------------0-------------------|
 C|-0---------------2-----------2---|-------------0-----------2-------|-0---------------2-----------2---|
D#|---------12--------------2-------|---------4---4-------------------|---------12--------------2-------|
 C|-----12--------------2-----------|-----0-------------------0-------|-----12--------------2-----------|
 F|---------------------------------|---------------------------------|---------------------------------|
G#|-0---------------2---------------|-4---------------4---------------|-0---------------2---------------|


                ^                          N.H N.H      ^                             ^
D#|-0-----------0-----------0---4/7---|-5-----------4---4-----------4---|-------------4-----------------|
 C|-------------0-------0-------------|-----------------2---------------|-------------0-----------------|
D#|---------4---4---------------------|---------12------2-------2-------|---------4---4-------------2---|
 C|-----0-------------------0---------|----12---------------2-----------|-----0---------------0h3-------|
 F|-----------------------------------|---------------------------------|-------------------------------|
G#|-4---------------4-----------------|-0---------------2---------------|-4---------------4-----x-------|


[Pre-Chorus]                                          ^
D#|-----------------------------------|-------------------------------|
 C|-----------------------------------|-------------------------------|
D#|-2h4~~~---(4)--2---0---------5/7---|-5~~~-(5)--4---2-----------2---|
G#|-0--------(0)----------0h3---------|------(0)------2------2h3------|
 F|-----------------------------------|-0~~~--------------------------|
G#|-4---------x-------4-----x---------|-------x-------2------x--------|
    ^

    ^
D#|-------------------------------|----------------------------------|
 C|-------------------------------|----------------------------------|
D#|-4~~~-(4)--2---0--(0)--0---0---|-0h2-2-2-2h4-4-4-4h5-5-5-5h7-7-7--|
 C|-0~~~-(0)---------(0)----------|---------0---------------0--------|
 F|-------------------------------|-0-------x-------0-------x--------|
G#|-4~~~--x-------4/--x-----------|----------------------------------|


[Chorus]              ^
D#|-5-------------4---2-----------5---|-4-----------------4---4-------0---|
 C|-0--------(0)------2---------------|--------(0)--0--0----------2-------|
D#|-0--------(0)-------------(2)------|--------(4)------------------------|
 C|-3-p0h3----------------2--(2)------|-----0-----------------------------|
 F|-3---------------------------------|-----------------------------------|
G#|-0---------x-------2-------x-------|-4-------0---------4-------0-------|
    ^


D#|--------------0-------------------|-0---------------------------------|
 C|-0-------(0)------2------(2)--2---|--------(0)-------0------0------0--|
D#|----0----(0)------2------(2)------|--------(4)-------4------4------4--|
 C|-------x--------------2-----------|-----0---------0--0------0------0--|
 F|-------x--------------------------|-----------------------------------|
G#|-0----------------2-------x-------|-4-------x---4----x-p0h4-x-p0h4-x--|


                    ^                                                                       ^
D#|-5-----------4---2-----------5---|-4-----------------4---4-------0---|---------------0-------------------|
 C|--------(0)------2---------------|--------(0)--0--0----------2-------|-0--------(0)------2------(2)--2---|
D#|--------(0)-------------(2)------|--------(4)------------------------|-----0----(0)------2------(2)------|
 C|-----3---------------2--(2)------|-----0-----------------------------|--------x--------------2-----------|
 F|---------------------------------|-----------------------------------|--------x--------------------------|
G#|-0-------x-------2-------x-------|-4-------x---------4-------x-------|-0---------x-------2-------x-------|



D#|-0----------------------------------|
 C|--------(0)-------0------0------0---|
D#|--------(4)-------4------4------4---|
 C|-----0---------0--0------0------0---|
 F|------------------------------------|
G#|-4-------0---4----x-p0h4-x-p0h4-x---|


[Outro]             ^
D#|-5-----------4---2-----------5---|-4-----------------4---4-------0---|
 C|-----------------2---------------|-------------0--0----------2-------|
D#|---------0-------2-------2-------|---------0-------------------------|
 C|-----0---------------2-----------|-----0-----------------------------|
 F|---------------------------------|-----------------------------------|
G#|-0---------------2---------------|-4---------------------------------|


       N.H N.H     ^                             ^                     A.H A.H         A.H A.H
D#|-------------0------------------|-0-----------0----------------|-5-----------4---2-----------2---|
 C|-0--------------2-----------2---|-------------0-----------(0)--|---------------------------------|
D#|---------12-----2-------2-------|---------4---4-------(4)------|---------0---------------2-------|
 C|-----12---------2---2-----------|-----0-----------(0)----------|-----0---------------2-----------|
 F|--------------------------------|------------------------------|---------------------------------|
G#|-0--------------2---------------|-4----------------------------|-0---------------2---------------|


       A.H A.H                             N.H N.H         A.H A.H           A.H----------|
D#|-4-----------------4---4-------0---|---------------------------------|-0---------------0---------------|
 C|-------------0--0----------2-------|-0-----------0---2-----------2---|-------------0-------------------|
D#|---------0-------------------------|---------0---------------2-------|---------0-----------------------|
 C|-----0-----------------------------|-----0---------------2-----------|-----0---------------------------|
 F|-----------------------------------|---------------------------------|---------------------------------|
G#|-4---------------------------------|-0---------------2---------------|-4-------------------------------|



***********************************

| x    Dead note
|( )   Ghost note
| ^    Strum-down
| /    Slide-up
| h    Hammer-on
| p    Pull-off
| ~    Vibrato
| N.H  Natural Harmonic
| A.H  Artificial Harmonic [Fret 0=12, 2=14]

***********************************

            
            
Suggest correction
Creating personal tab
Creating personal tab
You can edit any tab online and save it as your Personal.

You can edit, replace or remove any tab part or add personal notes – all changes will be seen only by you.

Personal tabs can be accessed anytime from any device, even offline.
Learn more »
Give kudos to tab author, rate the tab!
1 2 3 4 5
comments
print report bad tab
guest
You may want to rate the tab now too:
select rating
Wanna post a correction for this tab? Suggest correction