Oops, an error
Loading. Please wait.

Hard Sun tab

version 1
version 1

Whole song

  • Simplified version of Eddie Vedder's Hard Sun from... Show more
151 views 9 this week
no commentswrite comment
1 2 3 4 5
3 more votes to show rating
add to favorites
×
Save as Personal and add changes to this tab that will be seen only by you. Learn more ›
×
You can save this tab as Personal to edit and correct it or add notes. All changes will be seen only by you. Learn more »
launch autoscroll
font size
0
reset
how to read this tab
guitar tuner
edit
Autoscroll
slow
fast
+/-
esc
set tempo
stop
About this tab version
Simplified version of Eddie Vedder's Hard Sun from the movie Into the Wild. Might sound cool on a 12-string guitar. Was this info helpful? Yes No
Eighth note swing the whole way through

[Intro]
                                                          x4
e|----------3-3-3-|:3h5---5-----3-3-3h5-|--5-3-5---3-3-3-:|
B|----------3-3-3-|:3-----3-----3-3-3---|--3-3-3---3-3-3-:|
G|----------2-2-2-|:2-----2-----2-2-2---|--2-2-2---2-2-2-:|
D|----------0-0-0-|:0-----0-----0-0-0---|--0-0-0---0-0-0-:|
A|----------------|:0-------------------|----------------:|
D|----------------|:0-------------------|----------------:|

[Verse 1]
e|:3h5---5-----5-5-5-|--5-5-5---3-3-3-|3---3-----3-3-3-|--3-3-3---3-3-3-|
B|:3-----3-----3-3-3-|--3-3-3---3-3-3-|1---1-----1-1-1-|--1-1-1---1-1-1-|
G|:2-----2-----2-2-2-|--2-2-2---2-2-2-|0---0-----0-0-0-|--0-0-0---0-0-0-|
D|:0-----0-----0-0-0-|--0-0-0---0-0-0-|2---2-----2-2-2-|--2-2-2---2-2-2-|
A|:0-----------------|----------------|3---3-----3-3-3-|--3-3-3---3-3-3-|
D|:0-----------------|----------------|----------------|----------------|

                                                                      x4
e|3---3-----3-3-3-|--3-3-3---3-3-3-|5---5-----5-5-5-|--5-5-5---3-3-3-:|
B|0---0-----0-0-0-|--0-0-0---0-0-0-|3---3-----3-3-3-|--3-3-3---3-3-3-:|
G|0---0-----0-0-0-|--0-0-0---0-0-0-|2---2-----2-2-2-|--2-2-2---2-2-2-:|
D|0---0-----0-0-0-|--0-0-0---0-0-0-|0---0-----0-0-0-|--0-0-0---0-0-0-:|
A|5---5-----5-5-5-|--5-5-5---5-5-5-|----------------|----------------:|
D|5---5-----5-5-5-|--5-5-5---5-5-5-|----------------|----------------:|

[Chorus 1]
e|3h5---5-----5-5-5-|--5-5-5---3-3-3-|3---3-----3-3-3-|--3-3-3---3-3-3-|
B|3-----3-----3-3-3-|--3-3-3---3-3-3-|1---1-----1-1-1-|--1-1-1---1-1-1-|
G|2-----2-----2-2-2-|--2-2-2---2-2-2-|0---0-----0-0-0-|--0-0-0---0-0-0-|
D|0-----0-----0-0-0-|--0-0-0---0-0-0-|2---2-----2-2-2-|--2-2-2---2-2-2-|
A|0-----------------|----------------|0---0-----0-0-0-|--0-0-0---0-0-0-|
D|0-----------------|----------------|2---2-----2-2-2-|--2-2-2---2-2-2-|

                                                                      
e|3---3-----3-3-3-|--3-3-3---3-3-3-|5---5-----5-5-5-|--5-5-5---3-3-3-|
B|0---0-----0-0-0-|--0-0-0---0-0-0-|3---3-----3-3-3-|--3-3-3---3-3-3-|
G|0---0-----0-0-0-|--0-0-0---0-0-0-|2---2-----2-2-2-|--2-2-2---2-2-2-|
D|0---0-----0-0-0-|--0-0-0---0-0-0-|0---0-----0-0-0-|--0-0-0---0-0-0-|
A|5---5-----5-5-5-|--5-5-5---5-5-5-|----------------|----------------|
D|5---5-----5-5-5-|--5-5-5---5-5-5-|----------------|----------------|

[Verse 2]
e|:3h5---5-----5-5-5-|--5-5-5---3-3-3-|3---3-----3-3-3-|--3-3-3---3-3-3-|
B|:3-----3-----3-3-3-|--3-3-3---3-3-3-|1---1-----1-1-1-|--1-1-1---1-1-1-|
G|:2-----2-----2-2-2-|--2-2-2---2-2-2-|0---0-----0-0-0-|--0-0-0---0-0-0-|
D|:0-----0-----0-0-0-|--0-0-0---0-0-0-|2---2-----2-2-2-|--2-2-2---2-2-2-|
A|:0-----------------|----------------|3---3-----3-3-3-|--3-3-3---3-3-3-|
D|:0-----------------|----------------|----------------|----------------|

                                                                      x4
e|3---3-----3-3-3-|--3-3-3---3-3-3-|5---5-----5-5-5-|--5-5-5---3-3-3-:|
B|0---0-----0-0-0-|--0-0-0---0-0-0-|3---3-----3-3-3-|--3-3-3---3-3-3-:|
G|0---0-----0-0-0-|--0-0-0---0-0-0-|2---2-----2-2-2-|--2-2-2---2-2-2-:|
D|0---0-----0-0-0-|--0-0-0---0-0-0-|0---0-----0-0-0-|--0-0-0---0-0-0-:|
A|5---5-----5-5-5-|--5-5-5---5-5-5-|----------------|----------------:|
D|5---5-----5-5-5-|--5-5-5---5-5-5-|----------------|----------------:|

[Chorus 2]
e|:3h5---5-----5-5-5-|--5-5-5---3-3-3-|3---3-----3-3-3-|--3-3-3---3-3-3-|
B|:3-----3-----3-3-3-|--3-3-3---3-3-3-|1---1-----1-1-1-|--1-1-1---1-1-1-|
G|:2-----2-----2-2-2-|--2-2-2---2-2-2-|0---0-----0-0-0-|--0-0-0---0-0-0-|
D|:0-----0-----0-0-0-|--0-0-0---0-0-0-|2---2-----2-2-2-|--2-2-2---2-2-2-|
A|:0-----------------|----------------|0---0-----0-0-0-|--0-0-0---0-0-0-|
D|:0-----------------|----------------|2---2-----2-2-2-|--2-2-2---2-2-2-|

                                                                      x2
e|3---3-----3-3-3-|--3-3-3---3-3-3-|5---5-----5-5-5-|--5-5-5---3-3-3-:|
B|0---0-----0-0-0-|--0-0-0---0-0-0-|3---3-----3-3-3-|--3-3-3---3-3-3-:|
G|0---0-----0-0-0-|--0-0-0---0-0-0-|2---2-----2-2-2-|--2-2-2---2-2-2-:|
D|0---0-----0-0-0-|--0-0-0---0-0-0-|0---0-----0-0-0-|--0-0-0---0-0-0-:|
A|5---5-----5-5-5-|--5-5-5---5-5-5-|----------------|----------------:|
D|5---5-----5-5-5-|--5-5-5---5-5-5-|----------------|----------------:|

[Interlude 1]
                                         x2
e|:3h5---5-----3-3-3h5-|--5-3-5---3-3-3-:|
B|:3-----3-----3-3-3---|--3-3-3---3-3-3-:|
G|:2-----2-----2-2-2---|--2-2-2---2-2-2-:|
D|:0-----0-----0-0-0---|--0-0-0---0-0-0-:|
A|:0-------------------|----------------:|
D|:0-------------------|----------------:|

[Verse 3]
e|:3h5---5-----5-5-5-|--5-5-5---3-3-3-|3---3-----3-3-3-|--3-3-3---3-3-3-|
B|:3-----3-----3-3-3-|--3-3-3---3-3-3-|1---1-----1-1-1-|--1-1-1---1-1-1-|
G|:2-----2-----2-2-2-|--2-2-2---2-2-2-|0---0-----0-0-0-|--0-0-0---0-0-0-|
D|:0-----0-----0-0-0-|--0-0-0---0-0-0-|2---2-----2-2-2-|--2-2-2---2-2-2-|
A|:0-----------------|----------------|3---3-----3-3-3-|--3-3-3---3-3-3-|
D|:0-----------------|----------------|----------------|----------------|

                                                                      x3
e|3---3-----3-3-3-|--3-3-3---3-3-3-|5---5-----5-5-5-|--5-5-5---3-3-3-:|
B|0---0-----0-0-0-|--0-0-0---0-0-0-|3---3-----3-3-3-|--3-3-3---3-3-3-:|
G|0---0-----0-0-0-|--0-0-0---0-0-0-|2---2-----2-2-2-|--2-2-2---2-2-2-:|
D|0---0-----0-0-0-|--0-0-0---0-0-0-|0---0-----0-0-0-|--0-0-0---0-0-0-:|
A|5---5-----5-5-5-|--5-5-5---5-5-5-|----------------|----------------:|
D|5---5-----5-5-5-|--5-5-5---5-5-5-|----------------|----------------:|

[Chorus 3]
e|3h5---5-----5-5-5-|--5-5-5---3-3-3-|3---3-----3-3-3-|--3-3-3---3-3-3-|
B|3-----3-----3-3-3-|--3-3-3---3-3-3-|1---1-----1-1-1-|--1-1-1---1-1-1-|
G|2-----2-----2-2-2-|--2-2-2---2-2-2-|0---0-----0-0-0-|--0-0-0---0-0-0-|
D|0-----0-----0-0-0-|--0-0-0---0-0-0-|2---2-----2-2-2-|--2-2-2---2-2-2-|
A|0-----------------|----------------|0---0-----0-0-0-|--0-0-0---0-0-0-|
D|0-----------------|----------------|2---2-----2-2-2-|--2-2-2---2-2-2-|

                                                                      
e|3---3-----3-3-3-|--3-3-3---3-3-3-|5---5-----5-5-5-|--5-5-5---3-3-3-|
B|0---0-----0-0-0-|--0-0-0---0-0-0-|3---3-----3-3-3-|--3-3-3---3-3-3-|
G|0---0-----0-0-0-|--0-0-0---0-0-0-|2---2-----2-2-2-|--2-2-2---2-2-2-|
D|0---0-----0-0-0-|--0-0-0---0-0-0-|0---0-----0-0-0-|--0-0-0---0-0-0-|
A|5---5-----5-5-5-|--5-5-5---5-5-5-|----------------|----------------|
D|5---5-----5-5-5-|--5-5-5---5-5-5-|----------------|----------------|

[Interlude 2]
                                         x2
e|:3h5---5-----3-3-3h5-|--5-3-5---3-3-3-:|
B|:3-----3-----3-3-3---|--3-3-3---3-3-3-:|
G|:2-----2-----2-2-2---|--2-2-2---2-2-2-:|
D|:0-----0-----0-0-0---|--0-0-0---0-0-0-:|
A|:0-------------------|----------------:|
D|:0-------------------|----------------:|

[Verse 4]
e|:3h5---5-----5-5-5-|--5-5-5---3-3-3-|3---3-----3-3-3-|--3-3-3---3-3-3-|
B|:3-----3-----3-3-3-|--3-3-3---3-3-3-|1---1-----1-1-1-|--1-1-1---1-1-1-|
G|:2-----2-----2-2-2-|--2-2-2---2-2-2-|0---0-----0-0-0-|--0-0-0---0-0-0-|
D|:0-----0-----0-0-0-|--0-0-0---0-0-0-|2---2-----2-2-2-|--2-2-2---2-2-2-|
A|:0-----------------|----------------|3---3-----3-3-3-|--3-3-3---3-3-3-|
D|:0-----------------|----------------|----------------|----------------|

                                                                      x2
e|3---3-----3-3-3-|--3-3-3---3-3-3-|5---5-----5-5-5-|--5-5-5---3-3-3-:|
B|0---0-----0-0-0-|--0-0-0---0-0-0-|3---3-----3-3-3-|--3-3-3---3-3-3-:|
G|0---0-----0-0-0-|--0-0-0---0-0-0-|2---2-----2-2-2-|--2-2-2---2-2-2-:|
D|0---0-----0-0-0-|--0-0-0---0-0-0-|0---0-----0-0-0-|--0-0-0---0-0-0-:|
A|5---5-----5-5-5-|--5-5-5---5-5-5-|----------------|----------------:|
D|5---5-----5-5-5-|--5-5-5---5-5-5-|----------------|----------------:|

[Outro] 
repeat as many times as wished
e|3h5---5-----5-5-5-|--5-5-5---3-3-3-|3---3-----3-3-3-|--3-3-3---3-3-3-|
B|3-----3-----3-3-3-|--3-3-3---3-3-3-|1---1-----1-1-1-|--1-1-1---1-1-1-|
G|2-----2-----2-2-2-|--2-2-2---2-2-2-|0---0-----0-0-0-|--0-0-0---0-0-0-|
D|0-----0-----0-0-0-|--0-0-0---0-0-0-|2---2-----2-2-2-|--2-2-2---2-2-2-|
A|0-----------------|----------------|0---0-----0-0-0-|--0-0-0---0-0-0-|
D|0-----------------|----------------|2---2-----2-2-2-|--2-2-2---2-2-2-|

                                                                      
e|3---3-----3-3-3-|--3-3-3---3-3-3-|5---5-----5-5-5-|--5-5-5---3-3-3-|
B|0---0-----0-0-0-|--0-0-0---0-0-0-|3---3-----3-3-3-|--3-3-3---3-3-3-|
G|0---0-----0-0-0-|--0-0-0---0-0-0-|2---2-----2-2-2-|--2-2-2---2-2-2-|
D|0---0-----0-0-0-|--0-0-0---0-0-0-|0---0-----0-0-0-|--0-0-0---0-0-0-|
A|5---5-----5-5-5-|--5-5-5---5-5-5-|----------------|----------------|
D|5---5-----5-5-5-|--5-5-5---5-5-5-|----------------|----------------|

(On the record the chorus is just repeated over and over
for the last two minutes of the song until it slowly fades)



************************************

| h  Hammer-on
 

************************************

            
            
Suggest correction
Creating personal tab
Creating personal tab
You can edit any tab online and save it as your Personal.

You can edit, replace or remove any tab part or add personal notes – all changes will be seen only by you.

Personal tabs can be accessed anytime from any device, even offline.
Learn more »
Give kudos to tab author, rate the tab!
1 2 3 4 5
comments
print report bad tab
guest
You may want to rate the tab now too:
select rating
Wanna post a correction for this tab? Suggest correction