Oops, an error
Loading. Please wait.

And Live tab

by Eden
1,327 views 21 this week
no commentswrite comment
1 2 3 4 5
1 last vote to show rating
add to favorites
×
Save as Personal and add changes to this tab that will be seen only by you. Learn more ›
×
You can save this tab as Personal to edit and correct it or add notes. All changes will be seen only by you. Learn more »
launch autoscroll
font size
0
reset
how to read this tab
guitar tuner
edit
Autoscroll
slow
fast
+/-
esc
set tempo
stop
Author
Difficulty
About this tab version
This specific tab is based off of a live version played on the electric (https://www.youtube.com/watch?v=m-veWP-zW70), as the original song doesn't use guitar for the main chords. I've synced up the tab with the lyrics as best as possible, but if it's confusing just listen to the version linked on YouTube. Was this info helpful? Yes No
Eden - and 
As played on the electric guitar.
Reference used: https://www.youtube.com/watch?v=m-veWP-zW70

Played without a pick.

Tab below played with bar chords, except some of the very high notes, where playing
only the notes needed might be easier. Some of the chords are plucked as opposed to
strummed, watch video if you want to know which ones he plucks. Enjoy!

[Intro]

           ..And this is just another sad song,       You can't deny that I've been needing one,  
e|---------------------------------------------------------------------------------------|
B|---------------------------------------------------------------------------------------|
G|----9------------------------------------------9---------------------------------------|
D|----10-----------------------------------------10--------------------------------------|
A|----8------------------------------------------10--------------------------------------|
E|----8------------------------------------------8---------------------------------------|

           And that the world is always at fault,      And we did nothing how
e|------------------------------------------------------------------------------|
B|------------------------------------------------------------------------------|
G|----14-----------------------------------------16-----------------------------|
D|----15-----------------------------------------17-----------------------------|
A|----15-----------------------------------------17-----------------------------|
E|----13-----------------------------------------15-----------------------------|

    did we do ...  wrong,  And I've been thinkin' that when we thought,
e|-----------------------------------------------------------------------------|
B|-------------------------------------------------------------------------12--|
G|-------------17--------------------------------------------------------------|
D|-----------------------------------------------------------------------------|
A|-----------------------------------------------------------------------------|
E|---------17-----------------------------------------------------------12-----|

   The world would break us that we weren't wrong,          But it's just never
e|-----------------------------------------------------------------------------|
B|-----------------------------------------------------------------------------|
G|-----------------------------------------------------14----------------------|
D|-----------------------------------------------------------------------------|
A|-----------------------------------------------------------------------------|
E|--------------------------------------------------13-------------------------|

   been the world outside,          And sonder kinda has me terrified,
e|----------------------------------------------------------------------------|
B|----------------------------------------------------------------------------|
G|----------------------------16----------------16-----------16----2----2-----|
D|----------------------------------------------17-----------17----3----3-----|
A|----------------------------------------------17-----------17----3----3-----|
E|-------------------------15-------------------15-----------15----1----1-----|

[Verse]

  And I'm so sorry I can't find the time,        Spent all my days over-preoccupied, 
e|----------------------------------------------------------------------------------|
B|----------------------------------------------------------------------------------|
G|------------2-------------2--------4-------4-----------------4-------------4------|
D|------------3-------------3--------5-------5-----------------5-------------5------|
A|------------3-------------3--------5-------5-----------------5-------------5------|
E|------------1-------------1--------3-------3-----------------3-------------3------|

                 And I've been thinkin' 'bout how I'd react,
e|---------------------------------------------------------------------------|
B|---------------------------------------------------------------------------|
G|---10-----10------------------10----------------10--------2-------2--------|
D|---0------0-------------------0-----------------0---------3-------3--------|
A|---x------x-------------------x-----------------x---------3-------3--------|
E|---10-----10------------------10----------------10--------1-------1--------|

   If you were me and I was ghosted out,         And I know I should try more but 
e|-----------------------------------------------------------------------------|
B|-----------------------------------------------------------------------------|
G|-------------4-------------4-------6------6-------------6----------6---------|
D|-------------5-------------5-------7------7-------------7----------7---------|
A|-------------5-------------5-------7------7-------------7----------7---------|
E|-------------3-------------3-------5------5-------------5----------5---------|

   I've been so caught in my own small shit that I can't see, 
e|---------------------------------------------------------------------------|
B|---------------------------------------------------------------------------|
G|-0-----------0--------------0---------0-------------2--------2-------2-----|
D|-2-----------2--------------2---------2-------------3--------3-------3-----|
A|-2-----------2--------------2---------2-------------3--------3-------3-----|
E|-0-----------0--------------0---------0-------------1--------1-------1-----|

                                                            [Chorus]

 Past the nothing around me ... here,   But I've been tryin really fuckin  hard
e|------------------------------------------------------------------------------|
B|------------------------------------------------------------------------------|
G|---------2----------4------4------4-------4----------------5--------------5---|
D|---------3----------5------5------5-------5----------------7--------------7---|
A|---------3----------5------5------5-------5----------------7--------------7---|
E|---------1----------3------3------3-------3----------------5--------------5---|

  not to try so hard, Really fuckin hard to just let go,      Really fuckin hard 
e|-----------------------------------------------------------------------------------|
B|-----------------------------------------------------------------------------------|
G|-------0-------0-----2-------------2--------------4-----4----5-------------5-------|
D|-------2-------2-----3-------------3--------------5-----5----7-------------7-------|
A|-------2-------2-----3-------------3--------------5-----5----7-------------7-------|
E|-------0-------0-----1-------------1--------------3-----3----5-------------5-------|

   not to try so hard, And realize there's nowhere left to go, 
e|----------------------------------------------------------------------|
B|----------------------------------------------------------------------|
G|---------0------0-----------2-------------2-------------4-------4-----|
D|---------2------2-----------3-------------3-------------5-------5-----|
A|---------2------2-----------3-------------3-------------5-------5-----|
E|---------0------0-----------1-------------1-------------3-------3-----|

[Outro]

e|----------------------------------------------------------------------|
B|----------------------------------------------------------------------|
G|-----5----------0---2------------5------------4---2-------------------|
D|-----7----------2---3------------7------------5---3-------------------|
A|-----7----------2---3------------7------------5---3-------------------|
E|-----5----------0---1------------5------------3---1-------------------|

************************************

            
            
Suggest correction
Creating personal tab
Creating personal tab
You can edit any tab online and save it as your Personal.

You can edit, replace or remove any tab part or add personal notes – all changes will be seen only by you.

Personal tabs can be accessed anytime from any device, even offline.
Learn more »
Give kudos to tab author, rate the tab!
1 2 3 4 5
comments
print report bad tab
guest
You may want to rate the tab now too:
select rating
Wanna post a correction for this tab? Suggest correction