Oops, an error
Loading. Please wait.

An End Has A Start album bass

version 1
version 1

Album

Whole song

Interactive

by Editors
4,386 views 3 this week
no commentswrite comment
1 2 3 4 5
1 last vote to show rating
add to favorites
×
Save as Personal and add changes to this tab that will be seen only by you. Learn more ›
×
You can save this tab as Personal to edit and correct it or add notes. All changes will be seen only by you. Learn more »
launch autoscroll
font size
0
reset
guitar tuner
edit
Autoscroll
slow
fast
+/-
esc
set tempo
stop
Difficulty
Editors – an end has a start

1- smokers outside the hospital doors

Tuning: Drop D

Verse 1 x4
G|---------------------------------|
D|---------------------------------|
A|-------------0-2-3-3-3-3-7-7-7-7-|
D|-5-5-5-5-5-5---------------------|

Verse 2 x4
G|---------------------------------|
D|---------------------------------|
A|-------------0-2-3-3-3-3---------|
D|-5-5-5-5-5-5-------------2-2-2-2-|

Pre chorus 1 x4
G|---------------------------------|
D|---------------------------------|
A|---------------------------------|
D|-0-0-0-0-0-0-0-0-2-2-2-2-7-7-7-7-|

Pre chorus 2 
G|----------------------------------------------|
D|----------------------------------------------|
A|----------------------------------------------|
D|-10-10-10-10-10-10-10-10-10-10-10-10-10-10-10-|

Chorus x2
G|-------------------------------------------------------------------|
D|-----------------0-0-0-0-0-0-0-1-2-2-2-2-2-2-2-0-------------------|
A|-------------0-2---------------------------------3-3-3-3-3-3-3-3---|
D|-5-5-5-5-5-5-------------------------------------------------------|

Verse 2 x6
Pre chorus 1 x4
Pre chorus 2
Chorus x4
Verse 2
Verse 1 x4
Chorus (until the end)


2- an end has a start
(tabbed by ???)

Starts at (0:06)
Intro/Verse  x4
G||------------------------------------------------------------------|
D||------------------------------------------------------------------|
A||-2-2-2-2-2-2-2-2--9-9-9-9-9-9-9-9--5-5-5-5-5-5-5-9-9-9-9-9-9-9-9--| 
E||------------------------------------------------------------------|

Pre-Chorus
G|------------------------------------------------------------------|
D|------------------------------------------------------------------|
A|-7-7-7-7-7-7-7-7--2-2-2-2-2-2-2-2--5-5-5-5-5-5-5--9-9-9-9-9-9-9-9-|  x2
E|------------------------------------------------------------------|

G|---------------------------------|
D|---------------------------------|
A|-7-7-7-7-7-7-7-7-7-7-7-7-7-7-7-7-|
E|---------------------------------|

Chorus  x4
G|------------------------------------------------------------------------|
D|--------------4-4-------------7-7-7-7-----------------------------------|
A|-2-2-2-2-2-2---------4-4-4-4------------7-7-7-7-7-7-7-7-7-7-7-7-7-7-7-7-|
E|------------------------------------------------------------------------|

Intro/Verse  (variations of it)
Pre-Chorus
Chorus

Bridge  x2
G|------------------------------------------------------------------|
D|------------------------------------------------------------------|
A|5-5-5-5-5-5-5-5-9-9-9-9-9-9-9-9-7-7-7-7-7-7-7-7-7-4-4-4-4-4-4-4-4-|
E|------------------------------------------------------------------|

G|------------------------------------------------------------------|
D|------------------------------------------------------------------|
A|5-5-5-5-5-5-5-5-9-9-9-9-9-9-9-9-7-7-7-7-7-7-7-7-7-7-7-7-7-7-7-7-7-|
E|------------------------------------------------------------------|

Breakdown thing
G|
D|
A| REST
E|

Come back in at (2:46)

Chorus
Intro/Verse

3– the weight of the world

Verse x6

G|----7---7---7-|
D|--------------|
A|-555----------|
E|-----555-777--|

Chorus x2

G|-------------|
D|-------------|
A|-------------|
E|-5~-7~-3~-5~-|

Verse x6
Chorus x2
Rest
Chorus x6

End on

G|---|
D|---|
A|-5~|
E|---|

4– Bones

Intro x2

G|---------------222------222------222-|
D|-------4444--------------------------|
A|-55555-----4444----22222----22222----|
E|-------------------------------------|

Verse

G|----------------4444444444444444---------------------------------|
D|--------44444444-------------------------44444444----------------|
A|55555555-------------------------55555555--------2222222222222222|
E|-----------------------------------------------------------------|

Intro x2

Chorus x2

G|-------------97-----------------|
D|-------9(x12)--97-11(x16)-------|
A|-7(x16)------------------7(x16)-|
E|--------------------------------|

Intro x2
Verse
Intro x2
Chorus x2

Bridge x2

G|------------------------------|
D|---------------4(x16)-2(x16)--|
A|-5(x16)-4(x16)----------------|
E|------------------------------|

Intro x4
Short break
Intro x8 (until the end)

5-  When anger shows

Verse (come in after 2 parts)  x6
G|-------------|
D|-------------|
A|-3~-0~-------|
E|-------0~-3~-|

Pre-chorus1 x2
G|-------------|
D|-------------|
A|-5~~-7~------|
E|-------8~----|

Pre-chorus2
G|-------------|
D|-------------|
A|-0~--5~------|
E|-------------|

Chorus x4 (the rhythm is difficult to set down but listen to the song to be sure)
G|------------------|
D|-7------------54--|
A|--0--3335-------5-|
E|-----------30-----|

Rest for 2 parts
Verse x2

Verse variation x6
G|------------------------------------|
D|-------------------22222222-55555555|
A|-33333333-00000000------------------|
E|------------------------------------|

Pre-chorus1 x2
Pre-chorus2 
Chorus x4

Bridge 1 
G|--------|
D|--------|
A|-7(x32)-|
E|--------|

Bridge 2 x12
G|----------------------------------|
D|-----777755554444----55554444-----|
A|-7777------------5555--------5555-|
E|----------------------------------|

Chorus x6

6- the racing rats
(Tabbed By Matt c)

Intro (after piano)
G|--------------------------------|
D|--------------------------------|
A|----7---9-10----12---10-9-------|x2
E|--------------------------------|

verse:
G|-------------------------------------------------------------------|
D|-------------------------------------------------------------------|
A|---7777799991010101010101010--------12121212121010101099999999-----|x8
E|-------------------------------------------------------------------|

Chorus: part 1
E|--------------------------------------------|
G|--------------------------------------------|
D|--------------------------------------------|
A|--77777777222222223333333300000000----------|x2
E|--------------------------------------------|

Chorus part 2
G|--------------------------------------------|
D|--------------------------------------------|
A|--5555555555--------------------------------|x1
E|--------------------------------------------|

(on the second verse this ^ is played 22 times insted of 10 and at the end it is played 
times)

Bridge

G|----------------------------------------------|
D|----------------------------------------------|
A|---7----2----3-----5--------------------------|x4
E|----------------------------------------------|


Order:
Intro x1
Verse x8
Chorus part 1 x1
Chorus part 2 x1
Verse x4
Chorus part 1 x1
Chorus part 2 x1
Bridge x1
Verse x4
Chorus part 1 x2
Chorus part 2 x1

7-  push your head towards the air

Intro no bass
Come in at 1.08

Pre verse x4
G|--------|
D|--------|
A|----5---|
E|0-3-----|

Verse x2

G|------------------|
D|-5---5------------|
A|---5---5--2-4-5---|
E|------------------|

Pre verse x4

Chorus x2

G|-------------------------|
D|---545---545-------------|
A|-0-----7-----2---2-0---0-|
E|---------------------2---|

End chorus

G|--------|
D|--------|
A|-5------|
E|--------|

Pre verse x 10

9- Spiders

Verse (come in at 0.38) x2

G|------|
D|------|
A|---7~-|
E|-5~---|

Pre chorus

G|----|
D|----|
A|-7~-|
E|----|

Chorus x2

G|--------------|
D|-----------4--|
A|-3--5--7-5---5|
E|--------------|

Verse x4
Pre chorus
Chorus x2
Verse x2
Pre chorus

Chorus variation

G|-------------|
D|-------------|
A|-3—-5--7-----|
E|----------7--|

10- well worn hand

no bass in this song


all songs tabbed by bramaerts92@hotmail.com, without an end has a start and the racing rats

            
            
Suggest correction
Creating personal tab
Creating personal tab
You can edit any tab online and save it as your Personal.

You can edit, replace or remove any tab part or add personal notes – all changes will be seen only by you.

Personal tabs can be accessed anytime from any device, even offline.
Learn more »
Give kudos to tab author, rate the tab!
1 2 3 4 5
comments
print report bad tab
guest
Wanna post a correction for this tab? Suggest correction