Oops, an error
Loading. Please wait.

Blood tab

version 1
version 1

Whole song

Interactive

by Editors
13,062 views 9 this week
2 commentsread comments
1 2 3 4 5
x 14
add to favorites
×
Save as Personal and add changes to this tab that will be seen only by you. Learn more ›
×
You can save this tab as Personal to edit and correct it or add notes. All changes will be seen only by you. Learn more »
launch autoscroll
font size
0
reset
how to read this tab
guitar tuner
edit
Autoscroll
slow
fast
+/-
esc
set tempo
stop
-------------------------------------------------------------------------------
        Blood - Editors (Snowfield if your a traditionalist)
-------------------------------------------------------------------------------

 I've managed to tab out Chris' guitar (lead) and I've also done Russell's 
bass on a different tab. I'm trying to work out Tom's guitar (chords) at the 
moment and I'll try and post it as soon as I work it out. If anyone else is 
wanting to workout any editors songs (you should they're a great band)
here is a link to a live performance which might help... 

                  http://www.xfm.co.uk/Article.asp?id=101359



Tabbed by: The Middle 8th


GUITAR NUMBER ONE (Chris)
Tuning: Standard (EADGBe)

Intro x4

e|-------9-9-------9-9---------9-9----7-7------------------------------------|
B|--7-7-------7-7--------7-7---------------9-9-------------------------------|
G|---------------------------------------------------------------------------|
D|---------------------------------------------------------------------------|
A|---------------------------------------------------------------------------|
E|---------------------------------------------------------------------------|

NO GUITAR IN FIRST VERSE

After the first verse the intro riff is played again (x4).
The fourth time the riff is played it leads into the verse with a hammer-on...


e|--------9-9---------9-9--------9-9----7-7----------------------------------|
B|--7-7---------7-7--------7-7-----------------9p7h9-------------------------|
G|---------------------------------------------------------------------------|
D|---------------------------------------------------------------------------|
A|---------------------------------------------------------------------------|
E|---------------------------------------------------------------------------|

Verse x2

e|---------------------------------------------------------------------------|
B|--9-----7-----10---------------9----10----7--------------------------------|
G|---------------------------------------------------------------------------|
D|---------------------------------------------------------------------------|
A|---------------------------------------------------------------------------|
E|---------------------------------------------------------------------------|

Pre-Chorus (Tom's chords change but the lead plays the same thing again and again.)
 
e|------9---- play this x16 -------------------------------------------------|
B|------7--------------------------------------------------------------------|
G|---------------------------------------------------------------------------|
D|---------------------------------------------------------------------------|
A|---------------------------------------------------------------------------|
E|---------------------------------------------------------------------------|

 Chorusx4

e|----------9/12--9---12---7---9--9--9--7------------------------------------|
B|---7-------------------------------------9---7-----------------------------|
G|---------------------------------------------------------------------------|
D|---------------------------------------------------------------------------|
A|---------------------------------------------------------------------------|
E|---------------------------------------------------------------------------|

After the Chorus the Intro is played again x4 ending with the hammer and pull
as before.

 Verse Again - Same as the last one. The guitar playing.
 Pre-Chorus and Chorus (both the same as before).

After this chorus a variation of the intro is played (x4)...

e|---------9-9--------9-9-------9-9---9--9-----------------------------------|
B|---7-7---------7-7-------7-7--------7--7-----------------------------------|
G|---------------------------------------------------------------------------|
D|---------------------------------------------------------------------------|
A|---------------------------------------------------------------------------|
E|---------------------------------------------------------------------------|

Next it's the pre-chorus. The lead guitar plays exactly as it did in the last time.

Play the chorus one last time - the usual riff(x4) and finish with this riff...

e|--------9-9--------9-9--------9-9---9--9---playx3--------------------------|
B|--7-7--------7-7--------7-7---------7--7-----------------------------------|
G|---------------------------------------------------------------------------|
D|---------------------------------------------------------------------------|
A|---------------------------------------------------------------------------|
E|---------------------------------------------------------------------------|
 
...then...

e|--------9-9--------9-9-------9-9--9--9\------------------------------------|
B|--7-7---------7-7-------7-7-------7--7\------------------------------------|
G|---------------------------------------------------------------------------|
D|---------------------------------------------------------------------------|
A|---------------------------------------------------------------------------|
E|---------------------------------------------------------------------------|


| /  slide up
| \  slide down
| h  hammer-on             "I'm here all week"
| p  pull-off
| ~  vibrato
| +  harmonic
| x  Mute note
===============================================================================

            
            
Suggest correction
Creating personal tab
Creating personal tab
You can edit any tab online and save it as your Personal.

You can edit, replace or remove any tab part or add personal notes – all changes will be seen only by you.

Personal tabs can be accessed anytime from any device, even offline.
Learn more »
comments
print report bad tab
2 comments total.
0 reply
JamesUK123 10 Feb 14, 2007 01:31 AM

Hmm I think this is a bit wrong. It should be like this:

e|----------9/14--12---9---12---7--9--9--9--7-----7---------------------------|
B|---7-----------------------------------------9-----------------------------|
G|---------------------------------------------------------------------------|
D|---------------------------------------------------------------------------|
A|---------------------------------------------------------------------------|
E|---------------------------------------------------------------------------|

0 reply
Calypso888 10 Jul 29, 2014 08:11 AM

I think it's at the end

eI--------12-12-------12-12-------12-12---12-12-----------------------I
bI--14-14-------14-14-------14-14---------14-14----------------------I
gI---------------------------------------------------------I
dI----------------------------------------------------------I
aI-------------------------------------------------------------I
eI-------------------------------------------------------I

But i'm a noob so don't blame me ;)
Great tab by the way

guest
You may want to rate the tab now too:
select rating
Wanna post a correction for this tab? Suggest correction