Oops, an error
Loading. Please wait.

I Want A Forest bass

by Editors
218 views 1 this week
no commentswrite comment
1 2 3 4 5
3 more votes to show rating
add to favorites
×
Save as Personal and add changes to this tab that will be seen only by you. Learn more ›
×
You can save this tab as Personal to edit and correct it or add notes. All changes will be seen only by you. Learn more »
launch autoscroll
font size
0
reset
guitar tuner
edit
Autoscroll
slow
fast
+/-
esc
set tempo
stop
Author
Song: I want A Forest
Artist: Editors
Album: Cuttings II (In This Light and on This Evening deluxe edition disc 2) or You Are Fading IV
Track no: 2 (on both CDs)
Type: Bass Tab

Tabbed by: Curt R

I got bored so I begun jamming to You Are Fading IV and as I begun jaming to
this track I quickly got the tune. This is my first tab to be tabbed by ear
(my e-guitar tab is referenced off videos) as well as my first bass tab, so
please criticise properlly and tell me my mistakes (don't just say "This is
C***"!). It could be totally wrong... I hope not, but the jist is there just
maybe a few notes off. The places to be careful with is the Pre-Chorus and
the very end of the chorus.

Intro (bit with guitar only):
G|------------------|
D|------------------|
A|------------------|
E|-3--3/5--5/7--7-7-| x4



Verse (singing comes in with "There's blood in the sky"):
G|------------------|
D|------------------|
A|------------------|
E|-3--3/5--5/7--7-7-| x4



Pre-Chorus ("On a stormy day"):
G|-----------------------------------|
D|-----------------------------------|
A|-----------------------------------|
E|-1-1-1-1-3-3-3-3-5-5-5-5-7-7-7-7---| x2

G|-----------------|
D|-----------------|
A|-----------------|
E|-3-3-3-3-3-3-3-3-|



Chorus (joins on to the "Ohhhhh")
Part 1
G|-----------------------------|
D|-----------------------------|
A|-----------------------------|
E|-3-3-3-3-3-3-3-3-3/5--5/7--7-| x4

Part 2 ("I'll make it a forest")
G|------------------|
D|------------------|
A|------------------|
E|-3-3-3-3-5-5-5-5--| x2



Interlude/Center (bridge?):
G|------------------|
D|------------------|
A|------------------|
E|-3--3/5--5/7--7-7-| x4



Verse("You cut your ideas"):
G|------------------|
D|------------------|
A|------------------|
E|-3--3/5--5/7--7-7-| x4



Pre-Chorus:
G|-----------------------------------|
D|-----------------------------------|
A|-----------------------------------|
E|-1-1-1-1-3-3-3-3-5-5-5-5-7-7-7-7---| x2

G|-----------------|
D|-----------------|
A|-----------------|
E|-3-3-3-3-3-3-3-3-|



Chorus
Part 1
G|-----------------------------|
D|-----------------------------|
A|-----------------------------|
E|-3-3-3-3-3-3-3-3-3/5--5/7--7-| x8

Part 2
G|------------------|
D|------------------|
A|------------------|
E|-3-3-3-3-5-5-5-5--| x2



Outro:
G|------------------|
D|------------------|
A|------------------|
E|-3--3/5--5/7--7-7-| x3

G|----------------------|
D|----------------------|
A|----------------------|
E|-3--3/5--5/7--7-7-3~~-|

            
            
Suggest correction
Creating personal tab
Creating personal tab
You can edit any tab online and save it as your Personal.

You can edit, replace or remove any tab part or add personal notes – all changes will be seen only by you.

Personal tabs can be accessed anytime from any device, even offline.
Learn more »
Give kudos to tab author, rate the tab!
1 2 3 4 5
comments
print report bad tab
guest
You may want to rate the tab now too:
select rating
Wanna post a correction for this tab? Suggest correction