Oops, an error
Loading. Please wait.

Racing Rats intro tab

version 2
version 2

Intro

Whole song

Interactive

by Editors
21,180 views 12 this week
1 commentread comment
1 2 3 4 5
x 16
add to favorites
×
Save as Personal and add changes to this tab that will be seen only by you. Learn more ›
×
You can save this tab as Personal to edit and correct it or add notes. All changes will be seen only by you. Learn more »
launch autoscroll
font size
0
reset
how to read this tab
guitar tuner
edit
Autoscroll
slow
fast
+/-
esc
set tempo
stop
Author
i think this is the exact intro for racing rats. it sounds good.
its my first tab. so rate it please!!




e|---------------------------------------------------------------------------|
B|---------------------------------------------------------------------------|
G|-11-11-11-11-9------------------------7-7-7-9------------------------------|
D|---------------9------------------------------9-9-9--9---------------------|2X
A|-----------------10-7-7-7-9-9-9-10-10------------------9-9-9-10-10---------|
E|---------------------------------------------------------------------------|

            
            
Suggest correction
Creating personal tab
Creating personal tab
You can edit any tab online and save it as your Personal.

You can edit, replace or remove any tab part or add personal notes – all changes will be seen only by you.

Personal tabs can be accessed anytime from any device, even offline.
Learn more »
comments
print report bad tab
1 comment total.
0 reply
Jelmer 76 Jun 25, 2010 09:06 AM

Sounds absolutely right! I would play it in a slightly different way though:

E||--2--2--2--2--0-----------|--------------------------|--------0-----------------|--------------||
B||-----------------0--------|-----------------------3--|--3--3-----0--0--0--0-----|--------------||
G||--------------------0-----|-----------------0--0-----|--------------------------|--------0--0--||
D||-----------------------2--|--2--2--4--4--4-----------|-----------------------4--|--4--4--------||
A||--------------------------|--------------------------|--------------------------|--------------||
E||--------------------------|--------------------------|--------------------------|--------------||


This plays a little easier.

guest
You may want to rate the tab now too:
select rating
Wanna post a correction for this tab? Suggest correction