Oops, an error
Loading. Please wait.

Smokers Outside The Hospital Doors tab

version 2
version 2

Whole song

Interactive

by Editors
8,042 views 1 this week
2 commentsread comments
1 2 3 4 5
x 4
add to favorites
×
Save as Personal and add changes to this tab that will be seen only by you. Learn more ›
×
You can save this tab as Personal to edit and correct it or add notes. All changes will be seen only by you. Learn more »
launch autoscroll
font size
0
reset
how to read this tab
guitar tuner
backing track
0:00
0:00
edit
Autoscroll
slow
fast
+/-
esc
set tempo
stop
Author
This is great song by a great great band
I've only tabbed Chris's parts (lead) in this, as Tom plays mostly piano and the 
existing tab isnt comletely accurate in mt opinion, this one should be though....

Intro - Tremolo Picking
e|-15~~~~~~~~~~~~17~~~15~~~~~~~~~~~~17~~~|
B|---------------------------------------|
G|---------------------------------------|
D|---------------------------------------|
A|---------------------------------------|
E|---------------------------------------|However many times is needed

Verse
e|-----------------------------|
B|3~--3/12---5~---3~--3/12--5~-|
G|-----------------------------|
D|-----------------------------|
A|-----------------------------|
E|-----------------------------|

Pre-Chorus
e|-------------|-finish on this last time----|
B|7~--8~---13~-|-8~--------------------------|
G|-------------|-----------------------------|
D|-------------|-----------------------------|
A|-------------|-----------------------------|
E|-------------|-----------------------------|

Chorus
e|15-15-17-19-15-19-15-10---8-7---|
B|------------------------8-----8-|
G|--------------------------------|
D|--------------------------------|
A|--------------------------------|
E|--------------------------------|

Bridge is the same as the intro

And that is all :D
Please rate and comment

            
            
Suggest correction
Creating personal tab
Creating personal tab
You can edit any tab online and save it as your Personal.

You can edit, replace or remove any tab part or add personal notes – all changes will be seen only by you.

Personal tabs can be accessed anytime from any device, even offline.
Learn more »
comments
print report bad tab
2 comments total.
0 reply
jxmxsc 129 Oct 16, 2009 11:05 AM

e|15-15-17-19-15-19-15---------------------|
B|---------------------15-15-13-12----12---|
G|---------------------------------12----12|
D|-----------------------------------------|
A|-----------------------------------------|
E|-----------------------------------------|

this is what i play for the chorus

0 reply
patch17 3,377 Oct 19, 2009 06:33 AM

sounds good too (Y)

guest
You may want to rate the tab now too:
select rating
Wanna post a correction for this tab? Suggest correction