Oops, an error
Loading. Please wait.

In The Hall Of The Mountain King bass

version 1
version 1
21,008 views 6 this week
3 commentsread comments
1 2 3 4 5
x 7
add to favorites
×
Save as Personal and add changes to this tab that will be seen only by you. Learn more ›
×
You can save this tab as Personal to edit and correct it or add notes. All changes will be seen only by you. Learn more »
launch autoscroll
font size
0
reset
guitar tuner
edit
Autoscroll
slow
fast
+/-
esc
set tempo
stop
Tab Title: In the Hall of the Mountain King
Composed by: Edvard Grieg

This sounds alot better then the one previously
posted.

 __________________Intro________________________________
 Only cool part of the song. Play twice, and play super
 fast.
G|--------------------------------------------|
D|--------------5---5*--4---4*--3---3*--------|
A|---------6-8----6-------5-------2-----------|
E|----8-10------------------------------------|

G|-------------------5--3-------3*-----|
D|-------------5---5------5---5--------|
A|--------6-8----6----------6----------|
E|--8-10-------------------------------|

*=hold note out a little bit
______________________________________________________
play twice  play fast
rest inbetween each note

G|-------------------------------------|
D|--5--5-----5--5--5-----5-------------|
A|--------6-----------6----------------|
E|-------------------------------------|

 _______________________________________________________
 first 4 notes have rests inbetween them, the rest is
 fast.
G|--------------5-5---------------------|
D|------------------8-6-5---------8-6-5-|
A|------------------------8-6-5---------|
E|--8--8--8--8------------------8-------|
_______________________________________________________
Play 7 times, and fast

G|--5-----------|
D|----8-6-5-----|
A|--------------|
E|--------------|
_______________________________________________________

G|--------------5------------------------------|
D|-----------------5--5------------------------|
A|---------------------------------------------|
E|--8-----8--------------8--8---------8-8------|

_______________________________________________________

Well that is it, the Bass line for Mt King. It should
be played on a 5 string 1 octave lower though.

            
            
Suggest correction
Creating personal tab
Creating personal tab
You can edit any tab online and save it as your Personal.

You can edit, replace or remove any tab part or add personal notes – all changes will be seen only by you.

Personal tabs can be accessed anytime from any device, even offline.
Learn more »
comments
print report bad tab
3 comments total.
0 reply
alucardmik 10 May 02, 2007 12:37 AM

sounds fine to me
[only bothered learning the cool bit though]

0 reply
Pete_C_Bass 10 Nov 17, 2007 09:14 AM

at the end of the first part of the beginning its 6-5-6 4-5-4 3-4-3 not 6-5-6 4-5-4 3-2-3

0 reply
lvbassman 10 May 27, 2011 12:32 PM

It's a Bm key the Intro should be a 1\2 step lower i.e.
G--------------------------------------------------7--------7
d------------------------------------------------9---9----9--
a--------7-9---9--8---8--7---7----------7-9----9-------10----
e-7-9-10----10------9-----8-----7-9-10-----10---------------

For the rest Google "Grieg" and listen to the song there's a sample. it's a fun song to play none the less.

LVbassman
E-mail cc4tniner@yahoo.com

guest
Wanna post a correction for this tab? Suggest correction