Oops, an error
Loading. Please wait.

In The Hall Of The Mountain King intro tab

246,823 views 783 this week
5 commentsread comments
1 2 3 4 5
x 44
add to favorites
×
Save as Personal and add changes to this tab that will be seen only by you. Learn more ›
×
You can save this tab as Personal to edit and correct it or add notes. All changes will be seen only by you. Learn more »
launch autoscroll
font size
0
reset
how to read this tab
guitar tuner
edit
Autoscroll
slow
fast
+/-
esc
set tempo
stop
Song: In the Hall of the Mountain King
Artist: Grieg

Standard tuning

e|-----------------------------------------|
b|-----------------------------------------|
g|-----------------------------------------|
d|---------0--2-----2--1-----1--0-----0----|
a|0--2--3--------3--------2--------1-------|
E|-----------------------------------------|

e|-----------------------------------------|
b|-----------------------------------------|
g|---------------------2--0-----------0----|
d|---------0--2-----2--------2-----2-------|
a|0--2--3--------3--------------3----------|
E|-----------------------------------------|            Repeat x2

~~~~~~~~~~~~~~~~~~~~~~~~~~~~~~~~~~~~~~~~~~~~~~~~~~~~~~~~~~~~~~~~~~~~

e|-----------------------------------------|
b|------------0----0--1-----1--0-----0-----|
g|------1--2-----1-------2--------1--------|
d|2--4-------------------------------------|
a|-----------------------------------------|
E|-----------------------------------------|

e|-----------------------------------------|
b|------------0----0--1-----1--0-----------|
g|------1--2-----1-------2-----------------|
d|2--4-------------------------------------|
a|-----------------------------------------|
E|-----------------------------------------|          Repeat x2

~~~~~~~~~~~~~~~~~~~~~~~~~~~~~~~~~~~~~~~~~~~~~~~~~~~~~~~~~~~~~~~~~~~~~~~

e|------------0-----0--------------------------------|
b|---0--1--3-----1-----4--0--4--3-----3-----0--1--3--|
g|2--------------------------------3-----2-----------|
d|---------------------------------------------------|
a|---------------------------------------------------|
E|---------------------------------------------------|

e|0-----0--5--3--0-----0--3----------------|
b|---1--------------1----------------------|
g|-----------------------------------------|
d|-----------------------------------------|
a|-----------------------------------------|
E|-----------------------------------------|

e|------------0-----0--------------------------------|
b|---0--1--3-----1-----4--0--4--3-----3-----0--1--3--|
g|2--------------------------------3-----2-----------|
d|---------------------------------------------------|
a|---------------------------------------------------|
E|---------------------------------------------------|

e|--------------------------------|
b|1--0----------------------------|
g|------2-----2-------------------|
d|---------1----------------------|
a|--------------------------------|
E|--------------------------------|

thats it! have fun...its easy

            
            
Suggest correction
Creating personal tab
Creating personal tab
You can edit any tab online and save it as your Personal.

You can edit, replace or remove any tab part or add personal notes – all changes will be seen only by you.

Personal tabs can be accessed anytime from any device, even offline.
Learn more »
comments
print report bad tab
5 comments total. Showing first comments.
+4 reply
sandwich_man 155 Sep 25, 2005 06:16 AM

there are better tabs.

+1 reply
stringsquealer 10 Jun 20, 2008 01:25 PM

good job, but u messed up on the 1st and 2nd sections. it should be like thiss:

e:-----------------------------------------|
b:-----------------------------------------|
g:-----------------------------------------|
d:---------0--2-----2--1-----2--0-----0----|
a:0--2--3--------3--------2--------1-------|
E:-----------------------------------------|

e:-----------------------------------------|
b:-----------------------------------------|
g:---------------------2--0-----------0----|
d:---------0--2-----2--------2-----2-------|
a:0--2--3--------3--------------3----------|
E:-----------------------------------------| Repeat x2

~~~~~~~~~~~~~~~~~~~~~~~~~~~~~~~~~~~~~~~~~~~~~~~~~~~~~~~~~~~~~~~~~~~~

e:-----------------------------------------|
b:------------0----0--1-----1--0-----0-----|
g:------1--2-----1-------1--------1--------|
d:2--4-------------------------------------|
a:-----------------------------------------|
E:-----------------------------------------|

e:-----------------------------------------|
b:------------0----0--1-----1--0-----------|
g:------1--2-----1-------1-----------------|
d:2--4-------------------------------------|
a:-----------------------------------------|
E:-----------------------------------------| Repeat x2

+16 reply
stringsquealer 10 Jun 20, 2008 01:27 PM

lol sorry i messud up too. it should be like this:


e:-----------------------------------------|
b:-----------------------------------------|
g:-----------------------------------------|
d:---------0--2-----2--1-----1--0-----0----|
a:0--2--3--------3--------2--------1-------|
E:-----------------------------------------|

e:-----------------------------------------|
b:-----------------------------------------|
g:---------------------2--0-----------0----|
d:---------0--2-----2--------2-----2-------|
a:0--2--3--------3--------------3----------|
E:-----------------------------------------| Repeat x2

~~~~~~~~~~~~~~~~~~~~~~~~~~~~~~~~~~~~~~~~~~~~~~~~~~~~~~~~~~~~~~~~~~~~

e:-----------------------------------------|
b:------------0----0--1-----1--0-----0-----|
g:------1--2-----1-------1--------1--------|
d:2--4-------------------------------------|
a:-----------------------------------------|
E:-----------------------------------------|

e:-----------------------------------------|
b:------------0----0--1-----1--0-----------|
g:------1--2-----1-------1-----------------|
d:2--4-------------------------------------|
a:-----------------------------------------|
E:-----------------------------------------| Repeat x2

guest
You may want to rate the tab now too:
select rating
Wanna post a correction for this tab? Suggest correction