Oops, an error
Loading. Please wait.

Fresh Blood ukulele

version 1
version 1

Whole song

Interactive

by Eels
46 views 1 this week
no commentswrite comment
1 2 3 4 5
3 more votes to show rating
add to favorites
×
Save as Personal and add changes to this tab that will be seen only by you. Learn more ›
×
You can save this tab as Personal to edit and correct it or add notes. All changes will be seen only by you. Learn more »
launch autoscroll
font size
0
reset
transpose
0
reset
simplify chords
display chords
guitar tuner
edit
Autoscroll
slow
fast
+/-
esc
set tempo
stop
Author
newg [tm] 50,145
Strumming
There is no strumming pattern for this song yet. and get +5 IQ
-------------------------------------------------------------------------------
                              Eels - Fresh Blood
-------------------------------------------------------------------------------
Album : Hombre Lobo (2009)
Tempo : 91
E-mail: gwendal.mollo@orange.fr
Tabbed by: newg


Riff :

A |----------------------------------------------------|
E |--------------------------1--1--1--1--1--1--1--1----|
C |--2--2--2--2--2--2--2--2----------------------------|
G |----------------------------------------------------|


--3--3--3--3--3--3--3--3--2--2--2--2--2--2--2--2----|
----------------------------------------------------|
----------------------------------------------------|
----------------------------------------------------|


----------------------------------------------------|
--------------------------1--1--1--1--1--1--1--1----|
--2--2--2--2--2--2--2--2----------------------------|
----------------------------------------------------|


--0--0--0--0--0--0--0--0----------------------------|
----------------------------------------------------|
----------------------------------------------------|
--------------------------0--0--0--0--0--0--0--0----|

intro : 

D5 F5 C5 B5 
D5 F5 A5 G5    x2

D5    F5          C5    B5   D5       F5          A5       G5
  Sun down on the sorry day,   by nightlights the children pray
D5              F5              C5        B5   D5           F5         A5        G5
  I know you're prob'ly gettin' ready for bed,    beautiful woman, get out of my head
D5  (let ring)
I'm so tired of the same old crud
D5  (let ring)
Sweet baby, I need fresh blood

[Riff] x2
Whoo!
Howl

D5         F5            C5     B5   D5         F5        A5         G5
  The moon shines in the autumn sky,    Growin' cold, the leaves all die
D5          F5             C5   B5   D5         F5         A5           G5
  I'm more alone than I've ever been,   Help me out of the shape I'm in
D5  (let ring)
After the fires, before the flood
D5  (let ring)
My sweet baby, I need fresh blood

[Riff] x2
Whoo!
Howl

D5 F5 C5 B5 
D5 F5 A5 G5    

D5         F5          C5      B5    D5         F5         A5            G5
  Whatever trepidation you may feel,    In your heart, you know it's not real
D5     F5        C5    B5  D5           F5     A5   G5
  In a moment of clarity,     Summon an act of charity
D5  (let ring)
You gotta pull me out of this mud
D5  (let ring)
Sweet baby, I need fresh blood

[Riff] x2
Whoo!
Howl

[Riff] x2
Whoo!
Howl

D5 F5 C5 B5 
D5 F5 A5 G5  Repeat

            
            
Suggest correction
Creating personal tab
Creating personal tab
You can edit any tab online and save it as your Personal.

You can edit, replace or remove any tab part or add personal notes – all changes will be seen only by you.

Personal tabs can be accessed anytime from any device, even offline.
Learn more »
Give kudos to tab author, rate the tab!
1 2 3 4 5
comments
print report bad tab
guest
You may want to rate the tab now too:
select rating
Wanna post a correction for this tab? Suggest correction