Oops, an error
Loading. Please wait.

Not Ready Yet tab

version 1
version 1

Whole song

Interactive

by Eels
10,061 views 6 this week
6 commentsread comments
1 2 3 4 5
x 6
add to favorites
×
Save as Personal and add changes to this tab that will be seen only by you. Learn more ›
×
You can save this tab as Personal to edit and correct it or add notes. All changes will be seen only by you. Learn more »
launch autoscroll
font size
0
reset
how to read this tab
guitar tuner
edit
Autoscroll
slow
fast
+/-
esc
set tempo
stop
Not Ready Yet by the Eels
Off Beautiful Freak.
Tabbed: Mark Lynch (rlynch@iol.ie)

Any additions/corrections let me know. 

Capo 7th Fret (kinda awkward without it!)

This is the intro riff, but it's played through most of the song. I'm
not sure what the chords being played are but Em Bm D seems to work. 


e |-7-7----------------7----------|
B |-8-8-7--------------8-8-7------|
G |-9-9-7--------------9-----9-7--|
D |-9---9--------------9----------|
A |-7---9----------9-7-7----------|
E |--------7--7h10----------------|

e |-7-7----------------7-7--------|
B |-8-8-7--------------8---8------|
G |-9-9-7--------------9-----9-7--|
D |-9---9--------------9----------|
A |-7---9----------9-7-7----------|
E |--------7--7h10----------------|


A *very* rough jab at the solo 

e |-------------------------------|
B |------------10-----------------|
G |------9-11------11-9-----------|
D |-9-12--------------------------|
A |-------------------------------|
E |-------------------------------|

e |--------------------------------|
B |------------10-12-12-10---------|
G |------9-11--------------11 11-9-|
D |-9-12---------------------------|
A |--------------------------------|
E |--------------------------------|



there's a world outside
and i know 'cause i've heard talk
in my sweetest dream
i would go out for a walk 

but i don't think i'm ready yet
i'm not feeling up to it now
just not that steady yet
and i don't need you telling me how 

there's some happiness
and my stone face cracks again
maybe sometime sooner or later 

but i don't think i'm ready yet
i'm not feeling up to it now
just not that steady yet
and i don't need you telling me how 

so if i leave my room
don't you tell me to lighten up
maybe sometime sooner or later 

but i don't think i'm ready yet
i'm not feeling up to it now
just not that steady yet
and i don't need you telling me how 

            
            
Suggest correction
Creating personal tab
Creating personal tab
You can edit any tab online and save it as your Personal.

You can edit, replace or remove any tab part or add personal notes – all changes will be seen only by you.

Personal tabs can be accessed anytime from any device, even offline.
Learn more »
comments
print report bad tab
6 comments total. Showing first comments.
0 reply
galapogo 10 Aug 13, 2005 08:00 PM

Good tab, but the intro riff is:
e |-7-7----------------7----------|
B |-8-8-7--------------8-8-7------|
G |-9-9-7--------------9-----9-7--|
D |-9---9---------7----9----------|
A |-7---9-----7h9----7-7----------|
E |--------7----------------------|
Other than that it's more or less right, 4 stars.

-1 reply
Woopsadoodles 10 Jul 05, 2006 01:28 AM

The distorted guitar in the beginning over the intro riff goes like this
e |--------------------
B |-0/3/7/10\7\3-0-3-0-
G |--------------------
D |--------------------
A |--------------------
E |--------------------

0 reply
Begil 10 Dec 01, 2008 01:58 PM

just barre the 7th, not that awkward, saves capo-ing, it annoys me for sure

guest
Wanna post a correction for this tab? Suggest correction