Oops, an error
Loading. Please wait.

Sebelah Mata tab

1,792 views 153 this week
no commentswrite comment
1 2 3 4 5
2 more votes to show rating
add to favorites
×
Save as Personal and add changes to this tab that will be seen only by you. Learn more ›
×
You can save this tab as Personal to edit and correct it or add notes. All changes will be seen only by you. Learn more »
launch autoscroll
font size
0
reset
how to read this tab
guitar tuner
edit
Autoscroll
slow
fast
+/-
esc
set tempo
stop
About this tab version
The correct way to play Sebelah Mata by Efek Rumah Kaca. Was this info helpful? Yes No
[Intro]
       A             G#m                 A                 G#m 
e|----------4------------------0---------------7--------------------0--------|
B|--------------5---------0------------------------5------------0------------|
G|---------------------------------------------------------------------------|
D|-----7--------------6------------------7------------------6----------------|
A|---------------------------------------------------------------------------|
E|---------------------------------------------------------------------------|
                                                                                   x2
       A              B                 C#m                G#m 
e|----------4------------------7---------------4--------------------0--------|
B|--------------5----------------------------------5------------0------------|
G|------------------------8--------------6-----------------------------------|
D|-----7--------------9-------------------------------------6----------------|
A|---------------------------------------------------------------------------|
E|---------------------------------------------------------------------------|

[Verse]
       A             G#m                 A                 G#m 
e|----------4------------------0---------------7--------------------0--------|
B|--------------5---------0------------------------5------------0------------|
G|---------------------------------------------------------------------------|
D|-----7--------------6------------------7------------------6----------------|
A|---------------------------------------------------------------------------|
E|---------------------------------------------------------------------------|
              Sebelah        mataku                yang mampu mehilat 
 
       A              B                 C#m                G#m 
e|----------4------------------7---------------4--------------------0--------|
B|--------------5----------------------------------5------------0------------|
G|------------------------8--------------6-----------------------------------|
D|-----7--------------9-------------------------------------6----------------|
A|---------------------------------------------------------------------------|
E|---------------------------------------------------------------------------|
               bercak adalah sebuah                 warna-warna mempesona       

   A             G#m                 A                 G#m 
e|----------4------------------0---------------7--------------------0--------|
B|--------------5---------0------------------------5------------0------------|
G|---------------------------------------------------------------------------|
D|-----7--------------6------------------7------------------6----------------|
A|---------------------------------------------------------------------------|
E|---------------------------------------------------------------------------|
              membaur        suara                dibawanya kegetiran
 
      A              B                       B               
e|----------4------------------7-----------------------7---------------------|
B|--------------5------------------------------------------------------------|
G|------------------------8-----------------------8--------------------------|
D|-----7--------------9----------------------9-------------------------------|
A|---------------------------------------------------------------------------|
E|---------------------------------------------------------------------------|
                begitu asing terdengar          

    A             G#m                 A                 G#m 
e|----------4------------------0---------------7--------------------0--------|
B|--------------5---------0------------------------5------------0------------|
G|---------------------------------------------------------------------------|
D|-----7--------------6------------------7------------------6----------------|
A|---------------------------------------------------------------------------|
E|---------------------------------------------------------------------------|
              Sebelah        mataku                yang mempelajari
 
      A              B                 C#m                G#m 
e|----------4------------------7---------------4--------------------0--------|
B|--------------5----------------------------------5------------0------------|
G|------------------------8--------------6-----------------------------------|
D|-----7--------------9-------------------------------------6----------------|
A|---------------------------------------------------------------------------|
E|---------------------------------------------------------------------------|
               Gelombang kan mengisi              seluruh ruang tubuhku       

   A             G#m                 A                 G#m 
e|----------4------------------0---------------7--------------------0--------|
B|--------------5---------0------------------------5------------0------------|
G|---------------------------------------------------------------------------|
D|-----7--------------6------------------7------------------6----------------|
A|---------------------------------------------------------------------------|
E|---------------------------------------------------------------------------|
             Terbentuk dari sel akut                Dan diabetes adalah

      A              B                       B               
e|----------4------------------7-----------------------7---------------------|
B|--------------5------------------------------------------------------------|
G|------------------------8-----------------------8--------------------------|
D|-----7--------------9----------------------9-------------------------------|
A|---------------------------------------------------------------------------|
E|---------------------------------------------------------------------------|
                sebuah proses yang alami      

[Chorus]
       A             G#m                 A                 G#m 
e|----------4------------------0---------------7--------------------0--------|
B|--------------5---------0------------------------5------------0------------|
G|---------------------------------------------------------------------------|
D|-----7--------------6------------------7------------------6----------------|
A|---------------------------------------------------------------------------|
E|---------------------------------------------------------------------------|
 tapi   sebelah      mataku   , yang      lain       menyadari      
 
      A              B                 C#m              B          A
e|----------4-----------------7-----------------4-------------7-----------4--|
B|--------------5----------------------------5-------------------------5-----|
G|-------------------------8-------------6------------------8----------------|
D|-----7--------------9---------------------------------9----------7---------|
A|---------------------------------------------------------------------------|
E|---------------------------------------------------------------------------|
  gelap  adalah    teman  setia dari        waktu-waktu     yang hilang

[Verse 2]
    A             G#m                 A                 G#m 
e|----------4------------------0---------------7--------------------0--------|
B|--------------5---------0------------------------5------------0------------|
G|---------------------------------------------------------------------------|
D|-----7--------------6------------------7------------------6----------------|
A|---------------------------------------------------------------------------|
E|---------------------------------------------------------------------------|
              Sebelah        mataku                yang mempelajari
 
      A              B                 C#m                G#m 
e|----------4------------------7---------------4--------------------0--------|
B|--------------5----------------------------------5------------0------------|
G|------------------------8--------------6-----------------------------------|
D|-----7--------------9-------------------------------------6----------------|
A|---------------------------------------------------------------------------|
E|---------------------------------------------------------------------------|
               Gelombang kan mengisi              seluruh ruang tubuhku       

   A             G#m                 A                 G#m 
e|----------4------------------0---------------7--------------------0--------|
B|--------------5---------0------------------------5------------0------------|
G|---------------------------------------------------------------------------|
D|-----7--------------6------------------7------------------6----------------|
A|---------------------------------------------------------------------------|
E|---------------------------------------------------------------------------|
             Terbentuk dari sel akut                Dan diabetes adalah
 
      A              B                       B               
e|----------4------------------7-----------------------7---------------------|
B|--------------5------------------------------------------------------------|
G|------------------------8-----------------------8--------------------------|
D|-----7--------------9----------------------9-------------------------------|
A|---------------------------------------------------------------------------|
E|---------------------------------------------------------------------------|
                sebuah proses yang alami     

[Chorus]
       A             G#m                 A                 G#m 
e|----------4------------------0---------------7--------------------0--------|
B|--------------5---------0------------------------5------------0------------|
G|---------------------------------------------------------------------------|
D|-----7--------------6------------------7------------------6----------------|
A|---------------------------------------------------------------------------|
E|---------------------------------------------------------------------------|
 tapi   sebelah      mataku   , yang      lain       menyadari      
                                                                                   x2
      A              B                 C#m              B          A
e|----------4--------------7-------7-|----------4-------------7-----------4--|
B|--------------5--------------------|-------5-------------------------5-----|
G|----------------------8----8---8---|---6------------------8----------------|
D|-----7--------------9--------9-----|------------------9----------7---------|
A|-----------------------------------|---------------------------------------|
E|-----------------------------------|---------------------------------------|
 gelap  adalah    teman  setia dari        waktu-waktu     yang hilang 

[Solo]
       A             G#m                 A                 G#m 
e|---------------------------------------------------------------------------|
B|-----5--5--5--------4------------------5--5--5------------4----------------|
G|------------------------------4--6---------------------------------4--6----| 
D|---------------------------7-----------------------------------7-----------|    
A|---------------------------------------------------------------------------|     
E|---------------------------------------------------------------------------|         
                                                                                      2x 
       A           B             C#m                   G#m 
e|----------------------------4---5--5--5--4---------------------------------|   
B|-----5--5--5----7---7-7--------------------------------4--4--5-------------|    
G|---------------------------------------------------------------------------|  
D|---------------------------------------------------------------------------|
A|---------------------------------------------------------------------------|
E|---------------------------------------------------------------------------|

[Chorus]
       A             G#m                 A                 G#m 
e|----------4------------------0---------------7--------------------0--------|
B|--------------5---------0------------------------5------------0------------|
G|---------------------------------------------------------------------------|
D|-----7--------------6------------------7------------------6----------------|
A|---------------------------------------------------------------------------|
E|---------------------------------------------------------------------------|
 tapi   sebelah      mataku   , yang      lain       menyadari      
                                                                                   2x
      A              B                 C#m              B          A
e|----------4--------------7--------------------4-------------7-----------4--|
B|--------------5----------------------------5-------------------------5-----|
G|-----------------------8---------------6------------------8----------------|
D|-----7--------------9---------------------------------9----------7---------|
A|---------------------------------------------------------------------------|
E|---------------------------------------------------------------------------|
 gelap  adalah    teman  setia dari        waktu-waktu     yang hilang



************************************

| x  Dead note
 

************************************

            
            
Suggest correction
Creating personal tab
Creating personal tab
You can edit any tab online and save it as your Personal.

You can edit, replace or remove any tab part or add personal notes – all changes will be seen only by you.

Personal tabs can be accessed anytime from any device, even offline.
Learn more »
Give kudos to tab author, rate the tab!
1 2 3 4 5
comments
print report bad tab
guest
You may want to rate the tab now too:
select rating
Wanna post a correction for this tab? Suggest correction