Oops, an error
Loading. Please wait.

Waiting For The Bell bass

37 views 3 this week
no commentswrite comment
1 2 3 4 5
3 more votes to show rating
add to favorites
×
Save as Personal and add changes to this tab that will be seen only by you. Learn more ›
×
You can save this tab as Personal to edit and correct it or add notes. All changes will be seen only by you. Learn more »
launch autoscroll
font size
0
reset
guitar tuner
edit
Autoscroll
slow
fast
+/-
esc
set tempo
stop
Author
Difficulty
Bass Start - 00:15


[intro]

G|--------------|------------------|-------------|------------------|--------------4--4--4-4-4-4-4-|
D|--------------|------------------|-------------|------------------|------------4-----------------|
A|--5--5-5-5-5--|--5--5--5-5-5-----|-5--5-5-5-5--|--5--5--5-5-5-0-1-|-2--2-2-2-2-------------------|
E|--------------|--------------5-7-|-------------|------------------|------------------------------|


G|-5--5--5-5--------------------|----------------------------|
D|-----------5-4---4-4------1-4-|-2--2--2--------------------|
A|---------------------2--2-----|-------------0--0-0-2--2-2--|
E|------------------------------|---------2-4----------------|


G|-5--5--5-5--------------------|----------------------------|
D|-----------5-4---4-4------1-4-|-2--2--2--------------------|
A|---------------------2--2-----|-------------0--0-0-2--2-2--|
E|------------------------------|---------2-4----------------|


G|--------------|------------------|-----------------------------|
D|--------------|------------------|-----------------------------|
A|--5--5-5-5-5--|--5--5--5-5-5-----|-5---5--5-5--5--5--5-5-5-----|
E|--------------|--------------5-7-|---7---------------------5-7-|


[verse 1]

G|-----------------------------|-------------|------------------|
D|-----------------------------|-------------|------------------|
A|-5---5--5-5--5--5--5-5-5-----|-5--5-5-5-5--|--5--5--5-5-5-----|
E|---7---------------------5-7-|-------------|--------------5-7-|


G|-------------|------------------|--------------------------------|
D|-------------|------------------|--------------9--9--9-9-9-9-9\--|
A|-5--5-5-5-5--|--5--5--5-5-5-----|------------9-------------------|
E|-------------|--------------5-6-|-7--7-7-7-7---------------------|


G|-------------|------------------|-------------|------------------|
D|-------------|------------------|-------------|------------------|
A|----5-5-5-5--|--5--5--5-5-5-----|-5--5-5-5-5--|--5--5--5-5-5-----|
E|-------------|--------------5-7-|-------------|--------------5-7-|


[verse 2]

G|-----------------------------|-------------|------------------|
D|-----------------------------|-------------|------------------|
A|-5---5--5-5--5--5--5-5-5-----|-5--5-5-5-5--|--5--5--5-5-5-----|
E|---7---------------------5-7-|-------------|--------------5-7-|


G|-------------|------------------|--------------------------------|
D|-------------|------------------|--------------9--9--9-9-9-9-9\--|
A|-5--5-5-5-5--|--5--5--5-5-5-----|------------9-------------------|
E|-------------|--------------5-6-|-7--7-7-7-7---------------------|




G|-5--5--5-5--------------------|----------------------------|
D|-----------5-4---4-4------1-4-|-2--2--2--------------------|
A|---------------------2--2-----|-------------0--0-0-2--2-2--|
E|------------------------------|---------2-4----------------|


G|-5--5--5-5--------------------|----------------------------|
D|-----------5-4---4-4------1-4-|-2--2--2--------------------|
A|---------------------2--2-----|-------------0--0-0-2--2-2--|
E|------------------------------|---------2-4----------------|


[bridge]

G|--------------|------------------|-----------------------------|
D|--------------|------------------|-----------------------------|
A|--5--5-5-5-5--|--5--5--5-5-5-----|-5---5--5-5--5--5--5-5-5-----|
E|--------------|--------------5-7-|---7---------------------5-7-|


[verse 3]

G|-----------------------------|-------------|------------------|
D|-----------------------------|-------------|------------------|
A|-5---5--5-5--5--5--5-5-5-----|-5--5-5-5-5--|--5--5--5-5-5-----|
E|---7---------------------5-7-|-------------|--------------5-7-|


G|-------------|------------------|--------------------------------|
D|-------------|------------------|--------------9--9--9-9-9-9-9\--|
A|-5--5-5-5-5--|--5--5--5-5-5-----|------------9-------------------|
E|-------------|--------------5-6-|-7--7-7-7-7---------------------|




G|-5--5--5-5--------------------|----------------------------|
D|-----------5-4---4-4------1-4-|-2--2--2--------------------|
A|---------------------2--2-----|-------------0--0-0-2--2-2--|
E|------------------------------|---------2-4----------------|


G|-5--5--5-5--------------------|----------------------------|
D|-----------5-4---4-4------1-4-|-2--2--2--------------------|
A|---------------------2--2-----|-------------0--0-0-2--2-2--|
E|------------------------------|---------2-4----------------|


[bridge]

G|--------------|------------------|-------------------------|
D|--------------|------------------|-------------------------|
A|--5--5-5-5-5--|--5--5--5-5-5-----|-5---5--5-5--5--5--5-5-5-|
E|--------------|--------------5-7-|---7---------------------|


[instrumental]

G|----------|-----------|-----------|-----------|
D|----------|--7--7--7--|-----------|--5--5--5--|
A|-7--7--7--|-----------|--5--5--5--|-----------|
E|----------|-----------|-----------|-----------|


G|-----------|-----------|-----------|--4--4--4--|
D|-----------|-----------|--4--4--4--|-----------|
A|--3--3--3--|--6--6--6--|-----------|-----------|
E|-----------|-----------|-----------|-----------|


G|-----------|-------------|----------|-------------|
D|-----------|--7--7--7--6-|----------|--5--5--5--4-|
A|--7--7--7--|-------------|-5--5--5--|-------------|
E|-----------|-------------|----------|-------------|


G|----------|-----------3-|----------6-|-4--4--4--4-|
D|----------|-------------|-4--4--4----|------------|
A|-3--3--3--|--6--6--6----|------------|------------|
E|----------|-------------|------------|------------|




G|-5--5--5-5--------------------|----------------------------|
D|-----------5-4---4-4------1-4-|-2--2--2--------------------|
A|---------------------2--2-----|-------------0--0-0-2--2-2--|
E|------------------------------|---------2-4----------------|


G|-5--5--5-5--------------------|----------------------------|
D|-----------5-4---4-4------1-4-|-2--2--2--------------------|
A|---------------------2--2-----|-------------0--0-0-2--2-2--|
E|------------------------------|---------2-4----------------|


[bridge]

G|--------------|------------------|-----------------------------|
D|--------------|------------------|-----------------------------|
A|--5--5-5-5-5--|--5--5--5-5-5-----|-5---5--5-5--5--5--5-5-5-----|
E|--------------|--------------5-7-|---7---------------------5-7-|


G|-------------|------------------|-------------------------|
D|-------------|------------------|-------------------------|
A|-5--5-5-5-5--|--5--5--5-5-5-----|-5---5--5-5--5--5--5-5-5-|
E|-------------|--------------5-7-|---7---------------------|


[instrumental]

G|----------|-------------|----------|-------------|
D|----------|--7--7--7--6-|----------|--5--5--5--4-|
A|-7--7--7--|-------------|-5--5--5--|-------------|
E|----------|-------------|----------|-------------|


G|----------|-----------3-|----------6-|-4--4--4----|
D|----------|-------------|-4--4--4----|----------7-|
A|-3--3--3--|--6--6--6----|------------|------------|
E|----------|-------------|------------|------------|


G|------------|------------|------------|------------|
D|----------9-|-7--7--7--6-|----------7-|-5--5--5--4-|
A|-7--7--7----|------------|-5--5--5----|------------|
E|------------|------------|------------|------------|


G|------------|----------3-|----------6-|-4--4--4----|
D|----------5-|------------|-4--4--4----|----------7-|
A|-3--3--3----|-6--6--6----|------------|------------|
E|------------|------------|------------|------------|


G|----------|-----------|-----------|-----------|
D|----------|--7--7--7--|-----------|--5--5--5--|
A|-7--7--7--|-----------|--5--5--5--|-----------|
E|----------|-----------|-----------|-----------|


G|-----------|-----------|-----------|--4--4--4----|
D|-----------|-----------|--4--4--4--|-----------7-|
A|--3--3--3--|--6--6--6--|-----------|-------------|
E|-----------|-----------|-----------|-------------|


G|------------|------------|------------|------------|
D|----------9-|-7--7--7--6-|----------7-|-5--5--5--4-|
A|-7--7--7----|------------|-5--5--5----|------------|
E|------------|------------|------------|------------|


G|------------|----------3-|----------6-|-4--4--4--|
D|----------5-|------------|-4--4--4----|----------|
A|-3--3--3----|-6--6--6----|------------|----------|
E|------------|------------|------------|----------|


G|----------|-------------|----------|-------------|
D|----------|--7--7--7--6-|----------|--5--5--5--4-|
A|-7--7--7--|-------------|-5--5--5--|-------------|
E|----------|-------------|----------|-------------|


G|----------|-----------3-|----------6-|-4--4--4----|
D|----------|-------------|-4--4--4----|----------7-|
A|-3--3--3--|--6--6--6----|------------|------------|
E|----------|-------------|------------|------------|


G|------------|------------|------------|------------|
D|----------9-|-7--7--7--6-|----------7-|-5--5--5--4-|
A|-7--7--7----|------------|-5--5--5----|------------|
E|------------|------------|------------|------------|


G|------------|----------3-|----------6-|-4--4--4----|
D|----------5-|------------|-4--4--4----|----------7-|
A|-3--3--3----|-6--6--6----|------------|------------|
E|------------|------------|------------|------------|


G|----------|-----------|-----------|-----------|
D|----------|--7--7--7--|-----------|--5--5--5--|
A|-7--7--7--|-----------|--5--5--5--|-----------|
E|----------|-----------|-----------|-----------|


G|-----------|-----------|-----------|--4--4--4----|
D|-----------|-----------|--4--4--4--|-----------7-|
A|--3--3--3--|--6--6--6--|-----------|-------------|
E|-----------|-----------|-----------|-------------|


[outro]

G|------------|------------|------------|------------|
D|----------9-|-7--7--7--6-|----------7-|-5--5--5--4-|
A|-7--7--7----|------------|-5--5--5----|------------|
E|------------|------------|------------|------------|

                                               
G|------------|----------3-|----------6-|-4--4--4--|-----|
D|----------5-|------------|-4--4--4----|----------|--2--|
A|-3--3--3----|-6--6--6----|------------|----------|-----|
E|------------|------------|------------|----------|-----|



*****************

\ : slide down

*****************

in regular sequence!

            
            
Suggest correction
Creating personal tab
Creating personal tab
You can edit any tab online and save it as your Personal.

You can edit, replace or remove any tab part or add personal notes – all changes will be seen only by you.

Personal tabs can be accessed anytime from any device, even offline.
Learn more »
Give kudos to tab author, rate the tab!
1 2 3 4 5
comments
print report bad tab
guest
You may want to rate the tab now too:
select rating
Wanna post a correction for this tab? Suggest correction