Oops, an error
Loading. Please wait.

A Song For The Birds chords

by Eisley
262 views 1 this week
no commentswrite comment
1 2 3 4 5
1 last vote to show rating
add to favorites
×
Save as Personal and add changes to this tab that will be seen only by you. Learn more ›
×
You can save this tab as Personal to edit and correct it or add notes. All changes will be seen only by you. Learn more »
launch autoscroll
font size
0
reset
transpose
0
reset
display chords
guitar tuner
edit
Autoscroll
slow
fast
+/-
esc
set tempo
stop
Author
Strumming
There is no strumming pattern for this song yet. and get +5 IQ
[Intro/Main Riff]
   A                                   E
e|-----------------|------------------|-----------------|-------------------|
B|-----------------|------------------|-----------------|-------------------|
G|-----------------|------------------|-----------------|-------------------|
D|---------9--6----|---------9----6---|---------9--6----|--------9--6--7-6--|
A|--7--9---7--7----|--7--9---7----7---|--7--9---7--7----|--7--9--7--7--7-7--|
E|--5--5-----------|--5--5------------|--5--5-----------|--5--5-------------|

  A                                    E
e|-----------------|------------------|-----------------|-------------------|
B|-----------------|------------------|-----------------|-------------------|
G|-----------------|------------------|-----------------|-------------------|
D|---------9--6----|---------9---6----|---------9---6---|--7--6-------------|
A|--7--9---7--7----|--7--9---7---7----|--7--9---7---7---|--7--7---9---7-----|
E|--5--5-----------|--5--5------------|--5--5-----------|---------7---5-----|

[Verse 1]
A
When you found me, in that dungeon
E
Bright but tired of the punches
A                                   E
Oh that sweetheart, you were always mine
A 
Hide beneath the forest branches
E
Do your dance, take some chances
A                              E
Oh the sky has never looked so blue before 

[Pre-Chorus]
       C#m     E
Oh and I reach out to you
C#m      E
I reach out to you

[Main Riff]
A    E     A     E

[Verse 2]
A                                 E
Call out my name I will find you, if you’re reeling I will find you
A                                E
Your burdens lifted now they are mine, oh mine darling
A                       
Stand up tall and know I'll champion
E
All those things locked in your dungeon
A                                E
Nothing you could say could ever make me flinch

[Pre-Chorus]
       C#m     E
Oh and I reach out to you
C#m      E
I reach out to you

[Chorus] 
A                                 
You’re bright as fire, I hope you know
G#m
You wind me up, and let me go
C#m        E
I hate to see you so low
G#m  
So I will sing this solo
A                
My love for you, don’t ever doubt
G#m
You fill my heart so sing it out
C#m            E 
While we keep moving forwards
G#m 
This is a song for the birds

[Bridge]
A         E
Fathers, mothers
A           E
Sisters and brothers
A
Don’t be afraid, don’t be afraid
E
Don’t be afraid, don’t be afraid, 
A                  F#m   A
You can change the day

[Verse 3]
A
When the darkness comes to take me
E
Hold me down upon awakening
A
Tied and bound to you
            E
You have my soul forever
 
[Pre-Chorus]
   C#m         E
And I, I reach out to you
 C#m          E
Oh I, I reach out to you

[Chorus]
A           
You’re bright as fire, I hope you know
G#m
You wind me up, and let me go
C#m        E    
I hate to see you so low
G#m
So I will sing this solo
A 
My love for you, don’t ever doubt
G#m
You fill my heart so sing it out
C#m           E 
While we keep moving forwards
G#m                           E
This is a song for the birds
 
[Main Riff/Outro]
E

            
            
Suggest correction
Creating personal tab
Creating personal tab
You can edit any tab online and save it as your Personal.

You can edit, replace or remove any tab part or add personal notes – all changes will be seen only by you.

Personal tabs can be accessed anytime from any device, even offline.
Learn more »
Give kudos to tab author, rate the tab!
1 2 3 4 5
comments
print report bad tab
guest
You may want to rate the tab now too:
select rating
Wanna post a correction for this tab? Suggest correction