Oops, an error
Loading. Please wait.

Combinations album bass

by Eisley
544 views 3 this week
no commentswrite comment
1 2 3 4 5
3 more votes to show rating
add to favorites
×
Save as Personal and add changes to this tab that will be seen only by you. Learn more ›
×
You can save this tab as Personal to edit and correct it or add notes. All changes will be seen only by you. Learn more »
launch autoscroll
font size
0
reset
guitar tuner
edit
Autoscroll
slow
fast
+/-
esc
set tempo
stop
Author
-------------------------------------------------------------------------------
			  Combinations Album by Eisley
-------------------------------------------------------------------------------

All songs tabbed by: Valerie L.
e-mail: iloled@yahoo.com
tuning: standard

Tracks:
1. Many Funerals
2. Invasion
3. Taking Control
4. Go Away
5. I Could Be There For You
6. Come Clean
7. Ten Cent Blues
8. A Sight To Behold
9. Combinations
10. If You're Wondering

1. Many Funerals

Verse "Young and agile.."
G|-------------------|-----------------------------------------|
D|-------------------|-----------------------------------------|
A|-7-7--7-7--5-5--7-7|-7-7--7-7--5-5--7-7---7-7--7-7--5-5--7-7-|   
E|-------------------|--------------------7--------------------|

Pre-Chorus "Ohh..."
G|-------------------------------------------------------------|
D|-------------------------------------------------------------|
A|03-3--03-3-5--7-7--07-7-5--3-3--03-3-5-7-7--07-7----7-7--07-7|
E|-------------------------------------------------7-----------|

Chorus "break, break down."
G|-------------------------------------------------------|
D|-------------------------------------------------------|
A|---------------222222222222--------------2-------------|
E|-0-0-2-3-5--x3--------------0-0-2-3-5-x3---5-3-5-3-2-0~|

Verse "they fill the empty caskets.."
G|---------------------------------------------------------------------------------|
D|---------------------------------------------------------------------------------|
A|3-3-03-3-03-3-03-3--2-2-03-3-03-3-03-3--7-7-07-7-07-7-07-7--05-5-05-5-05-5-05-5-7|
E|---------------------------------------------------------------------------------|

G|----------------------------------------|
D|----------------------------------------|
A|3-3-03-3-03-3-03-3--2-2-02-2-02-2-02-2--|
E|----------------------------------------|

Chorus "break, break down."
G|-------------------------------------------------------|
D|-------------------------------------------------------|
A|---------------222222222222--------------2-------------|
E|-0-0-2-3-5--x3--------------0-0-2-3-5-x3---5-3-5-3-2-0~|


bridge
G|----------------------------------------------------------|
D|----------------------------------------------------------|
A|-3~---3-2~----2-3~-3/5--------------3~--3-2~---2-3~--3/5--|
E|-----------------------0-0-2-3-5-x2-----------------------|


outro chorus "break break down..."
G|-------------|     |-------------------------|
D|-------------|     |-------------------------|
A|-------------|     |----------2--------------|
E|-0-0-2-3-5---| x15 |0-0-2-3-5---5-3-5-3-2-0~-|


2. Invasion

ntro 
G|----------------------------------------------|
D|-------------------------------7h8p7--7-----7-|
A|-1/55555555555555-7-88888888--------8---8-7---|
E|----------------------------------------------|

Verse "The colorless words are burning our heels"
G|---------------------------------------------------------------------------------------|
D|--------------------------555555h7---------------------------55555---------------------|
A|55555555555555-7-88888888----------55555555555555-7-88888888-------3h5-5555555555555555|
E|---------------------------------------------------------------------------------------|

Pre-Chorus "Ohh, something's not right..."
G|---------------------|    
D|77-777-55------------|    
A|----------33-333-55--|    
E|---------------------| x4 

Chorus "You you might take the breath from my throat"
G|-----------------------------------|---------------------------------------|
D|-----------------------------------|---------------------------------------|
A|55555555----------33333333---------|5555555555----------33333333-----------|
E|---------11111111----------33333333|------------11111111----------33333h5p3|

pre-verse
G|-------------------------------------------|
D|----------------------------7h8p7--7-----7-|
A|-55555555555555-7-88888888--------8--8-7---|
E|-------------------------------------------|

Verse x1
Pre-Chorus x4
Chorus x2

Bridge "And they will try to make us forget..."
G|--------------------------------|--------------------------------|
D|--------------------------------|--------------------------------|
A|55-5-5~--33-3-3~----------------|-55-5-5~-33-3-3~---------33-3-3~|
E|-----------------33-3-3~-33-3-3~|-----------------33-3-3~--------|

"you don't have to know the truth..."
G|-----------------------------------|
D|-----------------------------------|
A|55-5-5~--33-3-3~-------------------|
E|------------------33-3-3~--66-6-6~-| x2

rest "Ohh something's not right..."

G|------------|
D|------------|
A|-1/3333-----|
E|------------|

chorus x1

outro chorus or just play the chorus
G|-------------------------------------|
D|-----7------------------5-2------235-|
A|5555---8-----------3333-----5555-----|
E|----------1111-123-------------------|

3. Taking Control

bass doesn't come in until
Pre-Chorus "and we won't take it..."
G|-----------------------|
D|-----------------------|
A|-4\--4444444444444444--|
E|-----------------------|

Chorus "You've been taking control of our lives"
G|-----------------------------|    |--------------------|
D|-----------------5-------6---|    |-----6--6-----------|
A|33-5-6----6---66---6--88---8-|    |4444---4-4-44444444-|
E|-------44---4----------------| x3 |--------------------|
 
Verse "if we get down..." they are 11's not 1's.
G|--------------|
D|--------------|
A|--------------|
E|444444/-1111--| x10

Pre-Chorus "and we won't take it..."
G|-------------------|
D|-------------------|
A|-4444444444444444--|
E|-------------------|

Chorus "You've been taking control of our lives"
G|-----------------------------|    |--------------------|
D|-----------------5-------6---|    |-----6--6-----------|
A|33-5-6----6---66---6--88---8-|    |4444---4-4-44444444-|
E|-------44---4----------------| x3 |--------------------|

Bridge 
G|--------------------|---------------------------------|
D|--------------------|----------------------------6666-|
A|3333------6666-8888-|3333------6666-888888888888------|
E|-----4444-----------|-----4444------------------------|

G|------------------------|
D|------------------------|
A|------------------------|
E|444444/-1111-444444/-88-| x4

Pre-Chorus "and we won't take it..."
G|-------------------|
D|-------------------|
A|-44444444444444-4--|
E|-------------------|

outro chorus "You've been taking control of our lives"
G|-----------------------------|    |-----------|
D|-----------------5-------6---|    |-----------|
A|33-5-6----6---66---6--88---8-|    |6666-8888--|
E|-------44---4----------------| x3 |-----------|

4. Go Away

Intro
G|----------------------------|-----------------------------|
D|----------------------------|-----------------------------|
A|--------------6666-98-999999|---------------666666-999999-|
E|777777-999999---------------|-777777-999999---------------|

Verse "I am a part of your soul..."
G|------------------8~-------------11p10----|
D|---------9~---11~------11~--9~---------11-|
A|-9~--8~-----------------------------------|
E|------------------------------------------|

Pre-Chorus "I have to reach my arms.."
G|--------------------8~-8----11p10-----------|
D|-----------9~--11~-------11-------11-9~-----|
A|-9~-9-8~-8------------------------------9~--|
E|--------------------------------------------|

Chorus 
G|----------------------------|
D|----------------------------|
A|--------------666666-999999-|
E|777777-999999---------------| x2

Intro
G|----------------------------|
D|----------------------------|
A|--------------6666-98-999999|
E|777777-999999---------------|

Verse x1

Pre-Chorus "Tumbling down, down.." slide slowly down
G|--------------------8~-8----11p10-----------|--------|
D|-----------9~--11~-------11-------11-9~-----|--------|
A|-9~-9-8~-8------------------------------9~--|-9~-9\--|
E|--------------------------------------------|--------|

Chorus changes to the B variation on A string 
G|------------------------------|
D|-----------------------444444-|
A|22222--44444---66666----------|
E|-----2-------2-------2--------| x2

Bridge "I am holding you---" play softly
G|---------------------------|
D|---------------------------|
A|--------------666666-999999|
E|777777-999999--------------|x2

G|--------------------------------------------------|
D|--------------------------------------------------|
A|--8h9---8h9---8h9---8h9-6-8h9-6-8h9---11p9---11p9-|
E|7-----7-----8-----8-----------------9------9------|

G|------------------------------------------|
D|------------------------------------------|
A|--8h9---8h9---8h9---8h9-6-8h9-6-8h9--1/9\-|
E|7-----7-----8-----8-----------------------|

Chorus x2

Outro chorus
G|--------------------------------------------------------|
D|--------------------------------------------------------|
A|--------------666666-999999-666666-999999-666666-999999-|
E|777777-999999-------------------------------------------|

5. I Could Be There For You

Bass doesn't come in until (1:59)
"oh..."
G|----------|
D|----------|
A|----------|
E|-1/6------|

Verse  "Could someone please walk through with me?"
G|-------------------|
D|-------------------|
A|-------------------|
E|-6-6-6-6-2-2/9-99-9| x6

"cause you are not what it seems"
G|----------------------|--------------------|
D|----------------------|--------------------|
A|--4~----4~--1~-----4~-|---4~-----4~--1~----|
E|2-----2---------2-----|-2-----2----------2-|

rest until (3:05)
"I could be there for you..."
G|--------------------------------------|
D|--------------------------------------|
A|----------------6p4---------------4~--|
E|-1/6-6-6-4-4-x4------6-6-4-4-x4-------| 

6. Come Clean

Verse
G|-------------------------|
D|-------------------------|
A|-8-8~--7-7~--5-5~--5-5~--|
E|-------------------------| x5

Pre-Chorus "Let's give it a try..."
G|---------------------------------------------------------------------------------|
D|---------------------------------------------------------------------------------|
A|-8\----------------------------------8~--7-7-------------------------------------|
E|-----6-6-6-6-6-6-6-6-6-6-6-6-6-6-6-6---------3~-3-3---6-6-6-6-6-6-6-6-6-6-6-6-6-6|

Chorus "Come clean all around me.."
G|------------------------|
D|------------------------|
A|-8~--7-7~--5-5~--5-5~---|
E|------------------------| x2

Verse x5
Pre-Chorus x1
Chorus x4

rest "listen to me, you pull me apart...."

pre-chorus x1
Chorus x4

outro chorus keep repeating this:
G|-------------------|
D|-------------------|
A|-8~---7~---5~------|
E|-------------------|

7. Ten Cent Blues

Intro (1's)
G|----------------------------------53-----|
D|-8\----------------------------------53--|
A|-----11-11-11-1--1-2-33-33-33-3/6--------|
E|---------------1-------------------------|

G|---------------------------------88-7--|
D|---------------------------------------|
A|66---6--5-33--3--3-5-66-66-66-3/6------|
E|---6--6-----3--3-----------------------|

Verse "Dear Orthodox.."
G|----------------------------53---------------------------------------|
D|-------------------------------53------------------------------------|
A|11-11-11-1-1-2-33-33-33-3/6-------66---6---6-5-33--3--3-5-66-6-------|
E|----------1--------------------------6---6-------3--3----------66-8-6|

"and my stilts"
G|-------------------------------------------7/8-88-7|
D|---------------------------------------------------|
A|66-66-66-666-5-33--33--33-3-33-55-66--6--6---------|
E|-----------------3---3--------------6--6-----------|

pre-chorus "adieu, adieu. fare thee well"
G|----------------------------53-------------------------------------------|
D|-------------------------------53----------------------------------------|
A|11-11-11-1-1-2-33-33-33-3/6-------66--6--6-5-33--3--35-66--66---66-666-8-|
E|----------1-------------------------6--6-------3---3-----6----6----------|

Chorus "whoa..."
G|-----------------------------------53--------------------------------------------5-3----|
D|--------------------------------------53---------------------------------------------5-3|
A|1111111111-1---1-2-33333333333-3/6-------66--6---6-5-33--3--3-5-66---66---66-3/6--------|
E|----------1--1-----------------------------6---6-------3--3--------6----6---------------|

verse x1
pre-chorus x1

Chorus "whoa..."
G|-----------------------------------53-----------------------------------------|
D|--------------------------------------53--------------------------------------|
A|1111111111-1---1-2-33333333333-3/6-------66--6---6-5-33--3--3-5-66---66---66-8|
E|----------1--1-----------------------------6---6-------3--3--------6----6-----|

verse "then she chose to dissect me..."
G|-------------------------------------|
D|-------------------------------------|
A|1/6-66-66-33-33-5-66---66---66-666-8-|
E|---------------------6----6----------|

Chorus x1

Bridge "in a way..."
G|--------------|
D|-8~-----5~----|
A|--------------|
E|--------------| x4

"in the end..."
G|-------5~---5-8~---8\--|
D|-8~--------------------|
A|-----------------------|
E|-----------------------|

Verse
G|----------------------------53----------------------------------------|
D|-------------------------------53-------------------------------------|
A|11-11-11-1-1-2-33-33-33-3/6-------66---6---6-5-33--3--3-5-66-666666-88|
E|----------1--------------------------6---6-------3--3-----------------|

repeat chorus until end 

8. A Sight To Behold 

i added the guitar part into the verse cause it sounds better

Verse "Could I possibly be insane?"
G|-------------------------------------------|
D|-------------------------------------------|
A|-------------------------------1-3-1-3-1-3-|
E|-1-1-1-1-1-1-1-1-1-1--4-1-4-1-4------------| x4

Pre-Chorus "ohh...woah....."
G|----------------------------------------|
D|----------------------------------------|
A|----------1-1-1-13----------1-1-1-1-3~--|
E|-1-1-1-1-----------1-1-1-1--------------|

Chorus "let's break the walls down..."
G|------------------------------------|
D|------------------------------------|
A|------------------11111111----------|
E|11111111-44444444----------11111111-| x2 

ones, not 11's.
G|------------------------------------|
D|-----------------------------3333---|
A|------------------------------------|
E|1111111111111111111111111111--------|

Verse x4
Pre-chorus x1

Chorus "let's break the walls down..."
G|------------------------------------|    |--------------------|
D|------------------------------------|    |--------------------|
A|------------------11111111----------|    |--------------------|
E|11111111-44444444----------11111111-| x2 |1111111111111111111-|

rest

Chorus x4

9. Combinations - no bass
10. If You're Wondering - no bass

Enjoy!

            
            
Suggest correction
Creating personal tab
Creating personal tab
You can edit any tab online and save it as your Personal.

You can edit, replace or remove any tab part or add personal notes – all changes will be seen only by you.

Personal tabs can be accessed anytime from any device, even offline.
Learn more »
Give kudos to tab author, rate the tab!
1 2 3 4 5
comments
print report bad tab
guest
You may want to rate the tab now too:
select rating
Wanna post a correction for this tab? Suggest correction