Oops, an error
Loading. Please wait.

Telescope Eyes tab

version 2
version 2

Whole song

Interactive

by Eisley
1,416 views 1 this week
no commentswrite comment
1 2 3 4 5
1 last vote to show rating
add to favorites
×
Save as Personal and add changes to this tab that will be seen only by you. Learn more ›
×
You can save this tab as Personal to edit and correct it or add notes. All changes will be seen only by you. Learn more »
launch autoscroll
font size
0
reset
how to read this tab
guitar tuner
edit
Autoscroll
slow
fast
+/-
esc
set tempo
stop
Author
Difficulty
----------------------------------------------------------------------------
                         Telescope Eyes - Eisley
----------------------------------------------------------------------------
Tabbed by:Joel S. Zelaya
Email:DistortedSound_85@Hotmail.Com

Tuning:EADGBe

~ (Let it ring a bit before moving on)
/ (Slide down)
 (Slide up)

Intro:

e|-0----------------------------------------------------------------------|
B|-0----------------------------------------------------------------------|
G|-0----------------------------------------------------------------------|
D|-2----------------------------------------------------------------------|
A|-2----2~--7~--5~--5~/7-7~/10-9-10-10/12~~5~~--2~/7-9-7-5~-5~/7-7/9-9----|
E|-0----------------------------------------------------------------------|

Verse:

Oh oh you remind me today. Calling me out to play with your telescope eyes metal teeth I 
be seen with you you see

e|-------------------------------|
B|---7---7-----------------------|
G|--7-7-7-7-(< skip that one  )--| Do that through that whole verse
D|----------( on the last time)--|    8 times I believe
A|----------(before the chorus)--|
E|-7---5-------------------------|

Chorus:

Please don't make me cry. Please don't make me cry.
I'm just like you I know you know. I'm just like you so leave me alone.

   D  A  B  G
e|---------------|
B|-3-------------|
G|-2--2--4-------| Strum those chords for a bit.
D|-0--2--4--5----| Listen to the song for timing.
A|----0--2--5----|
E|----------3----|

e|---------------------------------------|
B|--15/10-10~--7-7h8-7-------------------|
G|--------------------7~-7-6~-6/2-2-2-4~-| Thats the solo thing
D|---------------------------------------| Chauntelle does.
A|---------------------------------------|
E|---------------------------------------|

Verse:

I wonder why can't you see? Your just not near enough like me.
With your telescope eyes metal teeth I can't be seen with you.

e|-------------------------------|
B|---7---7-----------------------|
G|--7-7-7-7-(< skip that one  )--| Do that through that whole verse
D|----------( on the last time)--|    8 times I believe
A|----------(before the chorus)--|
E|-7---5-------------------------|

Chorus:

Please don't make me cry. Please don't make me cry.
I'm just like you I know you know. I'm just like you so leave me alone.

   D  A  B  G
e|---------------|
B|-3-------------|
G|-2--2--4-------| Strum those chords for a bit.
D|-0--2--4--5----| Listen to the song for timing.
A|----0--2--5----|
E|----------3----|

Solo:

e|------------------------------------------------------------------------|
B|------------------------------------------------------------------------|
G|------------------------------------------------------------------------|
D|------------------------------------------------------------------------|
A|-2~---2~--7~--5~--5~/7-7~/10-9-10-10/12~~5~~--2~/7-9-7-5~-5~/7-7/9-9----|
E|------------------------------------------------------------------------|

e|------|
B|--3---| Thats after the solo.
G|--2---| Then pause for drums.
D|--0---|
A|------|
E|------|

Chorus:

Please don't make me cry. Please don't make me cry.
I'm just like you I know you know. I'm just like you so leave me alone.
Please don't make me cry. Please don't make me cry.
I'm just like you I know you know. I'm just like you so leave me alone.

   D  A  B  G
e|---------------|
B|-3-------------|
G|-2--2--4-------| Strum those chords for a bit.
D|-0--2--4--5----| Listen to the song for timing.
A|----0--2--5----|
E|----------3----|

Outro:

Oh Oh you remind me today (Let the keys finish it)

OK that was my tab for Telescope eyes. If you want more Eisley tabs I'll be happy to 
them. Any comments or corrections please e-mail me at DistortedSound_85@hotmail.com Thanks 
for looking at and rating my tab.
============================================================================

            
            
Suggest correction
Creating personal tab
Creating personal tab
You can edit any tab online and save it as your Personal.

You can edit, replace or remove any tab part or add personal notes – all changes will be seen only by you.

Personal tabs can be accessed anytime from any device, even offline.
Learn more »
Give kudos to tab author, rate the tab!
1 2 3 4 5
comments
print report bad tab
guest
You may want to rate the tab now too:
select rating
Wanna post a correction for this tab? Suggest correction